  0
SECTION
  2
HEADER
  9
$ACADVER
  1
AC1014
  9
$HANDSEED
  5
FFFF
  9
$MEASUREMENT
 70
     1
  0
ENDSEC
  0
SECTION
  2
TABLES
  0
TABLE
  2
VPORT
  5
8
330
0
100
AcDbSymbolTable
 70
     4
  0
VPORT
  5
2E
330
8
100
AcDbSymbolTableRecord
100
AcDbViewportTableRecord
  2
*ACTIVE
 70
     0
 10
0.0
 20
0.0
 11
1.0
 21
1.0
 12
210.0
 22
148.5
 13
0.0
 23
0.0
 14
10.0
 24
10.0
 15
10.0
 25
10.0
 16
0.0
 26
0.0
 36
1.0
 17
0.0
 27
0.0
 37
0.0
 40
341.0
 41
1.24
 42
50.0
 43
0.0
 44
0.0
 50
0.0
 51
0.0
 71
     0
 72
   100
 73
     1
 74
     3
 75
     0
 76
     0
 77
     0
 78
     0
  0
ENDTAB
  0
TABLE
  2
LTYPE
  5
5
330
0
100
AcDbSymbolTable
 70
     1
  0
LTYPE
  5
14
330
5
100
AcDbSymbolTableRecord
100
AcDbLinetypeTableRecord
  2
BYBLOCK
 70
     0
  3

 72
    65
 73
     0
 40
0.0
  0
LTYPE
  5
15
330
5
100
AcDbSymbolTableRecord
100
AcDbLinetypeTableRecord
  2
BYLAYER
 70
     0
  3

 72
    65
 73
     0
 40
0.0
  0
LTYPE
  5
16
330
5
100
AcDbSymbolTableRecord
100
AcDbLinetypeTableRecord
  2
CONTINUOUS
 70
     0
  3
Solid line
 72
    65
 73
     0
 40
0.0
  0
ENDTAB
  0
TABLE
  2
LAYER
  5
2
100
AcDbSymbolTable
 70
1
  0
LAYER
  5
50
100
AcDbSymbolTableRecord
100
AcDbLayerTableRecord
  2
0
 70
0
  6
CONTINUOUS
  0
ENDTAB
  0
TABLE
  2
STYLE
  5
3
330
0
100
AcDbSymbolTable
 70
     1
  0
STYLE
  5
11
330
3
100
AcDbSymbolTableRecord
100
AcDbTextStyleTableRecord
  2
STANDARD
 70
     0
 40
0.0
 41
1.0
 50
0.0
 71
     0
 42
2.5
  3
txt
  4

  0
ENDTAB
  0
TABLE
  2
VIEW
  5
6
330
0
100
AcDbSymbolTable
 70
     0
  0
ENDTAB
  0
TABLE
  2
UCS
  5
7
330
0
100
AcDbSymbolTable
 70
     0
  0
ENDTAB
  0
TABLE
  2
APPID
  5
9
330
0
100
AcDbSymbolTable
 70
     2
  0
APPID
  5
12
330
9
100
AcDbSymbolTableRecord
100
AcDbRegAppTableRecord
  2
ACAD
 70
     0
  0
ENDTAB
  0
TABLE
  2
DIMSTYLE
  5
A
330
0
100
AcDbSymbolTable
 70
     1
  0
DIMSTYLE
105
27
330
A
100
AcDbSymbolTableRecord
100
AcDbDimStyleTableRecord
  2
ISO-25
 70
     0
  3

  4

  5

  6

  7

 40
1.0
 41
2.5
 42
0.625
 43
3.75
 44
1.25
 45
0.0
 46
0.0
 47
0.0
 48
0.0
140
2.5
141
2.5
142
0.0
143
0.03937007874016
144
1.0
145
0.0
146
1.0
147
0.625
 71
     0
 72
     0
 73
     0
 74
     0
 75
     0
 76
     0
 77
     1
 78
     8
170
     0
171
     3
172
     1
173
     0
174
     0
175
     0
176
     0
177
     0
178
     0
270
     2
271
     2
272
     2
273
     2
274
     3
340
11
275
     0
280
     0
281
     0
282
     0
283
     0
284
     8
285
     0
286
     0
287
     3
288
     0
  0
ENDTAB
  0
TABLE
  2
BLOCK_RECORD
  5
1
330
0
100
AcDbSymbolTable
 70
     1
  0
BLOCK_RECORD
  5
1F
330
1
100
AcDbSymbolTableRecord
100
AcDbBlockTableRecord
  2
*MODEL_SPACE
  0
BLOCK_RECORD
  5
1B
330
1
100
AcDbSymbolTableRecord
100
AcDbBlockTableRecord
  2
*PAPER_SPACE
  0
ENDTAB
  0
ENDSEC
  0
SECTION
  2
BLOCKS
  0
BLOCK
  5
20
330
1F
100
AcDbEntity
  8
0
100
AcDbBlockBegin
  2
*MODEL_SPACE
 70
     0
 10
0.0
 20
0.0
 30
0.0
  3
*MODEL_SPACE
  1

  0
ENDBLK
  5
21
330
1F
100
AcDbEntity
  8
0
100
AcDbBlockEnd
  0
BLOCK
  5
1C
330
1B
100
AcDbEntity
 67
     1
  8
0
100
AcDbBlockBegin
  2
*PAPER_SPACE
  1

  0
ENDBLK
  5
1D
330
1B
100
AcDbEntity
 67
     1
  8
0
100
AcDbBlockEnd
  0
ENDSEC
  0
SECTION
  2
ENTITIES
  0
SPLINE
  5
100
100
AcDbEntity
  8
0
 62
7
100
AcDbSpline
 70
8
 71
3
 72
8
 73
4
 74
0
 40
0
 40
0
 40
0
 40
0
 40
1
 40
1
 40
1
 40
1
 10
10.724997
 20
9.524987
 30
0.0
 10
10.724997
 20
9.953706
 30
0.0
 10
10.496278
 20
10.349858
 30
0.0
 10
10.124997
 20
10.564217
 30
0.0
  0
SPLINE
  5
101
100
AcDbEntity
  8
0
 62
7
100
AcDbSpline
 70
8
 71
3
 72
8
 73
4
 74
0
 40
0
 40
0
 40
0
 40
0
 40
1
 40
1
 40
1
 40
1
 10
10.124997
 20
10.564217
 30
0.0
 10
9.753716
 20
10.778577
 30
0.0
 10
9.296279
 20
10.778577
 30
0.0
 10
8.924998
 20
10.564217
 30
0.0
  0
SPLINE
  5
102
100
AcDbEntity
  8
0
 62
7
100
AcDbSpline
 70
8
 71
3
 72
8
 73
4
 74
0
 40
0
 40
0
 40
0
 40
0
 40
1
 40
1
 40
1
 40
1
 10
8.924998
 20
10.564217
 30
0.0
 10
8.553716
 20
10.349858
 30
0.0
 10
8.324998
 20
9.953706
 30
0.0
 10
8.324998
 20
9.524987
 30
0.0
  0
SPLINE
  5
103
100
AcDbEntity
  8
0
 62
7
100
AcDbSpline
 70
8
 71
3
 72
8
 73
4
 74
0
 40
0
 40
0
 40
0
 40
0
 40
1
 40
1
 40
1
 40
1
 10
8.324998
 20
9.524987
 30
0.0
 10
8.324998
 20
9.096269
 30
0.0
 10
8.553716
 20
8.700116
 30
0.0
 10
8.924998
 20
8.485757
 30
0.0
  0
SPLINE
  5
104
100
AcDbEntity
  8
0
 62
7
100
AcDbSpline
 70
8
 71
3
 72
8
 73
4
 74
0
 40
0
 40
0
 40
0
 40
0
 40
1
 40
1
 40
1
 40
1
 10
8.924998
 20
8.485757
 30
0.0
 10
9.296279
 20
8.271398
 30
0.0
 10
9.753716
 20
8.271398
 30
0.0
 10
10.124997
 20
8.485757
 30
0.0
  0
SPLINE
  5
105
100
AcDbEntity
  8
0
 62
7
100
AcDbSpline
 70
8
 71
3
 72
8
 73
4
 74
0
 40
0
 40
0
 40
0
 40
0
 40
1
 40
1
 40
1
 40
1
 10
10.124997
 20
8.485757
 30
0.0
 10
10.496278
 20
8.700116
 30
0.0
 10
10.724997
 20
9.096269
 30
0.0
 10
10.724997
 20
9.524987
 30
0.0
  0
SPLINE
  5
106
100
AcDbEntity
  8
0
 62
7
100
AcDbSpline
 70
8
 71
3
 72
8
 73
4
 74
0
 40
0
 40
0
 40
0
 40
0
 40
1
 40
1
 40
1
 40
1
 10
-5.799998
 20
49.849986
 30
0.0
 10
-5.799998
 20
50.278705
 30
0.0
 10
-6.028717
 20
50.674857
 30
0.0
 10
-6.399998
 20
50.889216
 30
0.0
  0
SPLINE
  5
107
100
AcDbEntity
  8
0
 62
7
100
AcDbSpline
 70
8
 71
3
 72
8
 73
4
 74
0
 40
0
 40
0
 40
0
 40
0
 40
1
 40
1
 40
1
 40
1
 10
-6.399998
 20
50.889216
 30
0.0
 10
-6.771279
 20
51.103576
 30
0.0
 10
-7.228717
 20
51.103576
 30
0.0
 10
-7.599998
 20
50.889216
 30
0.0
  0
SPLINE
  5
108
100
AcDbEntity
  8
0
 62
7
100
AcDbSpline
 70
8
 71
3
 72
8
 73
4
 74
0
 40
0
 40
0
 40
0
 40
0
 40
1
 40
1
 40
1
 40
1
 10
-7.599998
 20
50.889216
 30
0.0
 10
-7.971279
 20
50.674857
 30
0.0
 10
-8.199998
 20
50.278705
 30
0.0
 10
-8.199998
 20
49.849986
 30
0.0
  0
SPLINE
  5
109
100
AcDbEntity
  8
0
 62
7
100
AcDbSpline
 70
8
 71
3
 72
8
 73
4
 74
0
 40
0
 40
0
 40
0
 40
0
 40
1
 40
1
 40
1
 40
1
 10
-8.199998
 20
49.849986
 30
0.0
 10
-8.199998
 20
49.421267
 30
0.0
 10
-7.971279
 20
49.025115
 30
0.0
 10
-7.599998
 20
48.810756
 30
0.0
  0
SPLINE
  5
10a
100
AcDbEntity
  8
0
 62
7
100
AcDbSpline
 70
8
 71
3
 72
8
 73
4
 74
0
 40
0
 40
0
 40
0
 40
0
 40
1
 40
1
 40
1
 40
1
 10
-7.599998
 20
48.810756
 30
0.0
 10
-7.228717
 20
48.596397
 30
0.0
 10
-6.771279
 20
48.596397
 30
0.0
 10
-6.399998
 20
48.810756
 30
0.0
  0
SPLINE
  5
10b
100
AcDbEntity
  8
0
 62
7
100
AcDbSpline
 70
8
 71
3
 72
8
 73
4
 74
0
 40
0
 40
0
 40
0
 40
0
 40
1
 40
1
 40
1
 40
1
 10
-6.399998
 20
48.810756
 30
0.0
 10
-6.028717
 20
49.025115
 30
0.0
 10
-5.799998
 20
49.421267
 30
0.0
 10
-5.799998
 20
49.849986
 30
0.0
  0
LWPOLYLINE
  5
10c
100
AcDbEntity
  8
0
 62
7
100
AcDbPolyline
 90
1
 70
1
 10
10.724997
 20
9.524987
 30
0.0
  0
SPLINE
  5
10d
100
AcDbEntity
  8
0
 62
7
100
AcDbSpline
 70
8
 71
3
 72
8
 73
4
 74
0
 40
0
 40
0
 40
0
 40
0
 40
1
 40
1
 40
1
 40
1
 10
-56.176127
 20
1.630615
 30
0.0
 10
-56.176127
 20
2.059334
 30
0.0
 10
-56.404846
 20
2.455486
 30
0.0
 10
-56.776127
 20
2.669845
 30
0.0
  0
SPLINE
  5
10e
100
AcDbEntity
  8
0
 62
7
100
AcDbSpline
 70
8
 71
3
 72
8
 73
4
 74
0
 40
0
 40
0
 40
0
 40
0
 40
1
 40
1
 40
1
 40
1
 10
-56.776127
 20
2.669845
 30
0.0
 10
-57.147408
 20
2.884205
 30
0.0
 10
-57.604845
 20
2.884205
 30
0.0
 10
-57.976127
 20
2.669845
 30
0.0
  0
SPLINE
  5
10f
100
AcDbEntity
  8
0
 62
7
100
AcDbSpline
 70
8
 71
3
 72
8
 73
4
 74
0
 40
0
 40
0
 40
0
 40
0
 40
1
 40
1
 40
1
 40
1
 10
-57.976127
 20
2.669845
 30
0.0
 10
-58.347408
 20
2.455486
 30
0.0
 10
-58.576126
 20
2.059334
 30
0.0
 10
-58.576126
 20
1.630615
 30
0.0
  0
SPLINE
  5
110
100
AcDbEntity
  8
0
 62
7
100
AcDbSpline
 70
8
 71
3
 72
8
 73
4
 74
0
 40
0
 40
0
 40
0
 40
0
 40
1
 40
1
 40
1
 40
1
 10
-58.576126
 20
1.630615
 30
0.0
 10
-58.576126
 20
1.201897
 30
0.0
 10
-58.347408
 20
0.805744
 30
0.0
 10
-57.976127
 20
0.591385
 30
0.0
  0
SPLINE
  5
111
100
AcDbEntity
  8
0
 62
7
100
AcDbSpline
 70
8
 71
3
 72
8
 73
4
 74
0
 40
0
 40
0
 40
0
 40
0
 40
1
 40
1
 40
1
 40
1
 10
-57.976127
 20
0.591385
 30
0.0
 10
-57.604845
 20
0.377026
 30
0.0
 10
-57.147408
 20
0.377026
 30
0.0
 10
-56.776127
 20
0.591385
 30
0.0
  0
SPLINE
  5
112
100
AcDbEntity
  8
0
 62
7
100
AcDbSpline
 70
8
 71
3
 72
8
 73
4
 74
0
 40
0
 40
0
 40
0
 40
0
 40
1
 40
1
 40
1
 40
1
 10
-56.776127
 20
0.591385
 30
0.0
 10
-56.404846
 20
0.805744
 30
0.0
 10
-56.176127
 20
1.201897
 30
0.0
 10
-56.176127
 20
1.630615
 30
0.0
  0
LWPOLYLINE
  5
113
100
AcDbEntity
  8
0
 62
7
100
AcDbPolyline
 90
1
 70
1
 10
-5.799998
 20
49.849986
 30
0.0
  0
SPLINE
  5
114
100
AcDbEntity
  8
0
 62
7
100
AcDbSpline
 70
8
 71
3
 72
8
 73
4
 74
0
 40
0
 40
0
 40
0
 40
0
 40
1
 40
1
 40
1
 40
1
 10
-100.107226
 20
-16.566242
 30
0.0
 10
-100.107226
 20
-16.137523
 30
0.0
 10
-100.335945
 20
-15.741371
 30
0.0
 10
-100.707226
 20
-15.527011
 30
0.0
  0
SPLINE
  5
115
100
AcDbEntity
  8
0
 62
7
100
AcDbSpline
 70
8
 71
3
 72
8
 73
4
 74
0
 40
0
 40
0
 40
0
 40
0
 40
1
 40
1
 40
1
 40
1
 10
-100.707226
 20
-15.527011
 30
0.0
 10
-101.078507
 20
-15.312652
 30
0.0
 10
-101.535945
 20
-15.312652
 30
0.0
 10
-101.907226
 20
-15.527011
 30
0.0
  0
SPLINE
  5
116
100
AcDbEntity
  8
0
 62
7
100
AcDbSpline
 70
8
 71
3
 72
8
 73
4
 74
0
 40
0
 40
0
 40
0
 40
0
 40
1
 40
1
 40
1
 40
1
 10
-101.907226
 20
-15.527011
 30
0.0
 10
-102.278507
 20
-15.741371
 30
0.0
 10
-102.507226
 20
-16.137523
 30
0.0
 10
-102.507226
 20
-16.566242
 30
0.0
  0
SPLINE
  5
117
100
AcDbEntity
  8
0
 62
7
100
AcDbSpline
 70
8
 71
3
 72
8
 73
4
 74
0
 40
0
 40
0
 40
0
 40
0
 40
1
 40
1
 40
1
 40
1
 10
-102.507226
 20
-16.566242
 30
0.0
 10
-102.507226
 20
-16.994960
 30
0.0
 10
-102.278507
 20
-17.391113
 30
0.0
 10
-101.907226
 20
-17.605472
 30
0.0
  0
SPLINE
  5
118
100
AcDbEntity
  8
0
 62
7
100
AcDbSpline
 70
8
 71
3
 72
8
 73
4
 74
0
 40
0
 40
0
 40
0
 40
0
 40
1
 40
1
 40
1
 40
1
 10
-101.907226
 20
-17.605472
 30
0.0
 10
-101.535945
 20
-17.819831
 30
0.0
 10
-101.078507
 20
-17.819831
 30
0.0
 10
-100.707226
 20
-17.605472
 30
0.0
  0
SPLINE
  5
119
100
AcDbEntity
  8
0
 62
7
100
AcDbSpline
 70
8
 71
3
 72
8
 73
4
 74
0
 40
0
 40
0
 40
0
 40
0
 40
1
 40
1
 40
1
 40
1
 10
-100.707226
 20
-17.605472
 30
0.0
 10
-100.335945
 20
-17.391113
 30
0.0
 10
-100.107226
 20
-16.994960
 30
0.0
 10
-100.107226
 20
-16.566242
 30
0.0
  0
LWPOLYLINE
  5
11a
100
AcDbEntity
  8
0
 62
7
100
AcDbPolyline
 90
1
 70
1
 10
-56.176127
 20
1.630615
 30
0.0
  0
SPLINE
  5
11b
100
AcDbEntity
  8
0
 62
7
100
AcDbSpline
 70
8
 71
3
 72
8
 73
4
 74
0
 40
0
 40
0
 40
0
 40
0
 40
1
 40
1
 40
1
 40
1
 10
-65.474982
 20
60.124983
 30
0.0
 10
-65.474982
 20
60.553702
 30
0.0
 10
-65.703700
 20
60.949854
 30
0.0
 10
-66.074981
 20
61.164213
 30
0.0
  0
SPLINE
  5
11c
100
AcDbEntity
  8
0
 62
7
100
AcDbSpline
 70
8
 71
3
 72
8
 73
4
 74
0
 40
0
 40
0
 40
0
 40
0
 40
1
 40
1
 40
1
 40
1
 10
-66.074981
 20
61.164213
 30
0.0
 10
-66.446263
 20
61.378572
 30
0.0
 10
-66.903700
 20
61.378572
 30
0.0
 10
-67.274981
 20
61.164213
 30
0.0
  0
SPLINE
  5
11d
100
AcDbEntity
  8
0
 62
7
100
AcDbSpline
 70
8
 71
3
 72
8
 73
4
 74
0
 40
0
 40
0
 40
0
 40
0
 40
1
 40
1
 40
1
 40
1
 10
-67.274981
 20
61.164213
 30
0.0
 10
-67.646262
 20
60.949854
 30
0.0
 10
-67.874981
 20
60.553702
 30
0.0
 10
-67.874981
 20
60.124983
 30
0.0
  0
SPLINE
  5
11e
100
AcDbEntity
  8
0
 62
7
100
AcDbSpline
 70
8
 71
3
 72
8
 73
4
 74
0
 40
0
 40
0
 40
0
 40
0
 40
1
 40
1
 40
1
 40
1
 10
-67.874981
 20
60.124983
 30
0.0
 10
-67.874981
 20
59.696264
 30
0.0
 10
-67.646262
 20
59.300112
 30
0.0
 10
-67.274981
 20
59.085753
 30
0.0
  0
SPLINE
  5
11f
100
AcDbEntity
  8
0
 62
7
100
AcDbSpline
 70
8
 71
3
 72
8
 73
4
 74
0
 40
0
 40
0
 40
0
 40
0
 40
1
 40
1
 40
1
 40
1
 10
-67.274981
 20
59.085753
 30
0.0
 10
-66.903700
 20
58.871394
 30
0.0
 10
-66.446263
 20
58.871394
 30
0.0
 10
-66.074981
 20
59.085753
 30
0.0
  0
SPLINE
  5
120
100
AcDbEntity
  8
0
 62
7
100
AcDbSpline
 70
8
 71
3
 72
8
 73
4
 74
0
 40
0
 40
0
 40
0
 40
0
 40
1
 40
1
 40
1
 40
1
 10
-66.074981
 20
59.085753
 30
0.0
 10
-65.703700
 20
59.300112
 30
0.0
 10
-65.474982
 20
59.696264
 30
0.0
 10
-65.474982
 20
60.124983
 30
0.0
  0
LWPOLYLINE
  5
121
100
AcDbEntity
  8
0
 62
7
100
AcDbPolyline
 90
1
 70
1
 10
-100.107226
 20
-16.566242
 30
0.0
  0
SPLINE
  5
122
100
AcDbEntity
  8
0
 62
7
100
AcDbSpline
 70
8
 71
3
 72
8
 73
4
 74
0
 40
0
 40
0
 40
0
 40
0
 40
1
 40
1
 40
1
 40
1
 10
-11.963653
 20
0.250000
 30
0.0
 10
-11.963653
 20
0.678719
 30
0.0
 10
-12.192372
 20
1.074871
 30
0.0
 10
-12.563653
 20
1.289230
 30
0.0
  0
SPLINE
  5
123
100
AcDbEntity
  8
0
 62
7
100
AcDbSpline
 70
8
 71
3
 72
8
 73
4
 74
0
 40
0
 40
0
 40
0
 40
0
 40
1
 40
1
 40
1
 40
1
 10
-12.563653
 20
1.289230
 30
0.0
 10
-12.934934
 20
1.503589
 30
0.0
 10
-13.392372
 20
1.503589
 30
0.0
 10
-13.763653
 20
1.289230
 30
0.0
  0
SPLINE
  5
124
100
AcDbEntity
  8
0
 62
7
100
AcDbSpline
 70
8
 71
3
 72
8
 73
4
 74
0
 40
0
 40
0
 40
0
 40
0
 40
1
 40
1
 40
1
 40
1
 10
-13.763653
 20
1.289230
 30
0.0
 10
-14.134934
 20
1.074871
 30
0.0
 10
-14.363653
 20
0.678719
 30
0.0
 10
-14.363653
 20
0.250000
 30
0.0
  0
SPLINE
  5
125
100
AcDbEntity
  8
0
 62
7
100
AcDbSpline
 70
8
 71
3
 72
8
 73
4
 74
0
 40
0
 40
0
 40
0
 40
0
 40
1
 40
1
 40
1
 40
1
 10
-14.363653
 20
0.250000
 30
0.0
 10
-14.363653
 20
-0.178719
 30
0.0
 10
-14.134934
 20
-0.574871
 30
0.0
 10
-13.763653
 20
-0.789230
 30
0.0
  0
SPLINE
  5
126
100
AcDbEntity
  8
0
 62
7
100
AcDbSpline
 70
8
 71
3
 72
8
 73
4
 74
0
 40
0
 40
0
 40
0
 40
0
 40
1
 40
1
 40
1
 40
1
 10
-13.763653
 20
-0.789230
 30
0.0
 10
-13.392372
 20
-1.003590
 30
0.0
 10
-12.934934
 20
-1.003590
 30
0.0
 10
-12.563653
 20
-0.789230
 30
0.0
  0
SPLINE
  5
127
100
AcDbEntity
  8
0
 62
7
100
AcDbSpline
 70
8
 71
3
 72
8
 73
4
 74
0
 40
0
 40
0
 40
0
 40
0
 40
1
 40
1
 40
1
 40
1
 10
-12.563653
 20
-0.789230
 30
0.0
 10
-12.192372
 20
-0.574871
 30
0.0
 10
-11.963653
 20
-0.178719
 30
0.0
 10
-11.963653
 20
0.250000
 30
0.0
  0
LWPOLYLINE
  5
128
100
AcDbEntity
  8
0
 62
7
100
AcDbPolyline
 90
1
 70
1
 10
-65.474982
 20
60.124983
 30
0.0
  0
SPLINE
  5
129
100
AcDbEntity
  8
0
 62
7
100
AcDbSpline
 70
8
 71
3
 72
8
 73
4
 74
0
 40
0
 40
0
 40
0
 40
0
 40
1
 40
1
 40
1
 40
1
 10
10.724997
 20
47.624977
 30
0.0
 10
10.724997
 20
48.053695
 30
0.0
 10
10.496278
 20
48.449847
 30
0.0
 10
10.124997
 20
48.664207
 30
0.0
  0
SPLINE
  5
12a
100
AcDbEntity
  8
0
 62
7
100
AcDbSpline
 70
8
 71
3
 72
8
 73
4
 74
0
 40
0
 40
0
 40
0
 40
0
 40
1
 40
1
 40
1
 40
1
 10
10.124997
 20
48.664207
 30
0.0
 10
9.753716
 20
48.878566
 30
0.0
 10
9.296279
 20
48.878566
 30
0.0
 10
8.924998
 20
48.664207
 30
0.0
  0
SPLINE
  5
12b
100
AcDbEntity
  8
0
 62
7
100
AcDbSpline
 70
8
 71
3
 72
8
 73
4
 74
0
 40
0
 40
0
 40
0
 40
0
 40
1
 40
1
 40
1
 40
1
 10
8.924998
 20
48.664207
 30
0.0
 10
8.553716
 20
48.449847
 30
0.0
 10
8.324998
 20
48.053695
 30
0.0
 10
8.324998
 20
47.624977
 30
0.0
  0
SPLINE
  5
12c
100
AcDbEntity
  8
0
 62
7
100
AcDbSpline
 70
8
 71
3
 72
8
 73
4
 74
0
 40
0
 40
0
 40
0
 40
0
 40
1
 40
1
 40
1
 40
1
 10
8.324998
 20
47.624977
 30
0.0
 10
8.324998
 20
47.196258
 30
0.0
 10
8.553716
 20
46.800106
 30
0.0
 10
8.924998
 20
46.585746
 30
0.0
  0
SPLINE
  5
12d
100
AcDbEntity
  8
0
 62
7
100
AcDbSpline
 70
8
 71
3
 72
8
 73
4
 74
0
 40
0
 40
0
 40
0
 40
0
 40
1
 40
1
 40
1
 40
1
 10
8.924998
 20
46.585746
 30
0.0
 10
9.296279
 20
46.371387
 30
0.0
 10
9.753716
 20
46.371387
 30
0.0
 10
10.124997
 20
46.585746
 30
0.0
  0
SPLINE
  5
12e
100
AcDbEntity
  8
0
 62
7
100
AcDbSpline
 70
8
 71
3
 72
8
 73
4
 74
0
 40
0
 40
0
 40
0
 40
0
 40
1
 40
1
 40
1
 40
1
 10
10.124997
 20
46.585746
 30
0.0
 10
10.496278
 20
46.800106
 30
0.0
 10
10.724997
 20
47.196258
 30
0.0
 10
10.724997
 20
47.624977
 30
0.0
  0
LWPOLYLINE
  5
12f
100
AcDbEntity
  8
0
 62
7
100
AcDbPolyline
 90
1
 70
1
 10
-11.963653
 20
0.250000
 30
0.0
  0
LWPOLYLINE
  5
130
100
AcDbEntity
  8
0
 62
7
100
AcDbPolyline
 90
1
 70
1
 10
10.724997
 20
47.624977
 30
0.0
  0
SPLINE
  5
131
100
AcDbEntity
  8
0
 62
7
100
AcDbSpline
 70
8
 71
3
 72
8
 73
4
 74
0
 40
0
 40
0
 40
0
 40
0
 40
1
 40
1
 40
1
 40
1
 10
-14.810887
 20
-10.524997
 30
0.0
 10
-15.363172
 20
-10.524997
 30
0.0
 10
-15.810887
 20
-10.972712
 30
0.0
 10
-15.810887
 20
-11.524997
 30
0.0
  0
LWPOLYLINE
  5
132
100
AcDbEntity
  8
0
 62
7
100
AcDbPolyline
 90
2
 70
0
 10
28.574992
 20
-10.524997
 30
0.0
 10
-14.810887
 20
-10.524997
 30
0.0
  0
SPLINE
  5
133
100
AcDbEntity
  8
0
 62
7
100
AcDbSpline
 70
8
 71
3
 72
8
 73
4
 74
0
 40
0
 40
0
 40
0
 40
0
 40
1
 40
1
 40
1
 40
1
 10
-15.810887
 20
-17.094823
 30
0.0
 10
-15.810887
 20
-17.647108
 30
0.0
 10
-16.258602
 20
-18.094822
 30
0.0
 10
-16.810887
 20
-18.094823
 30
0.0
  0
LWPOLYLINE
  5
134
100
AcDbEntity
  8
0
 62
7
100
AcDbPolyline
 90
2
 70
0
 10
-15.810887
 20
-11.524997
 30
0.0
 10
-15.810887
 20
-17.094823
 30
0.0
  0
SPLINE
  5
135
100
AcDbEntity
  8
0
 62
7
100
AcDbSpline
 70
8
 71
3
 72
8
 73
4
 74
0
 40
0
 40
0
 40
0
 40
0
 40
1
 40
1
 40
1
 40
1
 10
-45.385879
 20
-18.094823
 30
0.0
 10
-64.308953
 20
-18.094823
 30
0.0
 10
-82.456987
 20
-25.611985
 30
0.0
 10
-95.837621
 20
-38.992619
 30
0.0
  0
LWPOLYLINE
  5
136
100
AcDbEntity
  8
0
 62
7
100
AcDbPolyline
 90
2
 70
0
 10
-16.810887
 20
-18.094823
 30
0.0
 10
-45.385879
 20
-18.094823
 30
0.0
  0
SPLINE
  5
137
100
AcDbEntity
  8
0
 62
7
100
AcDbSpline
 70
8
 71
3
 72
8
 73
4
 74
0
 40
0
 40
0
 40
0
 40
0
 40
1
 40
1
 40
1
 40
1
 10
-102.572811
 20
-45.727809
 30
0.0
 10
-102.963335
 20
-46.118333
 30
0.0
 10
-103.596500
 20
-46.118333
 30
0.0
 10
-103.987024
 20
-45.727809
 30
0.0
  0
LWPOLYLINE
  5
138
100
AcDbEntity
  8
0
 62
7
100
AcDbPolyline
 90
2
 70
0
 10
-95.837621
 20
-38.992619
 30
0.0
 10
-102.572811
 20
-45.727809
 30
0.0
  0
SPLINE
  5
139
100
AcDbEntity
  8
0
 62
7
100
AcDbSpline
 70
8
 71
3
 72
8
 73
4
 74
0
 40
0
 40
0
 40
0
 40
0
 40
1
 40
1
 40
1
 40
1
 10
-130.927785
 20
-18.787048
 30
0.0
 10
-131.318309
 20
-18.396524
 30
0.0
 10
-131.318309
 20
-17.763359
 30
0.0
 10
-130.927785
 20
-17.372835
 30
0.0
  0
LWPOLYLINE
  5
13a
100
AcDbEntity
  8
0
 62
7
100
AcDbPolyline
 90
2
 70
0
 10
-103.987024
 20
-45.727809
 30
0.0
 10
-130.927785
 20
-18.787048
 30
0.0
  0
SPLINE
  5
13b
100
AcDbEntity
  8
0
 62
7
100
AcDbSpline
 70
8
 71
3
 72
8
 73
4
 74
0
 40
0
 40
0
 40
0
 40
0
 40
1
 40
1
 40
1
 40
1
 10
-124.192595
 20
-10.637645
 30
0.0
 10
-113.603068
 20
-0.048118
 30
0.0
 10
-100.987945
 20
8.298584
 30
0.0
 10
-87.100682
 20
13.903944
 30
0.0
  0
SPLINE
  5
13c
100
AcDbEntity
  8
0
 62
7
100
AcDbSpline
 70
8
 71
3
 72
8
 73
4
 74
0
 40
0
 40
0
 40
0
 40
0
 40
1
 40
1
 40
1
 40
1
 10
-87.100682
 20
13.903944
 30
0.0
 10
-86.722559
 20
14.056568
 30
0.0
 10
-86.474976
 20
14.423491
 30
0.0
 10
-86.474976
 20
14.831255
 30
0.0
  0
LWPOLYLINE
  5
13d
100
AcDbEntity
  8
0
 62
7
100
AcDbPolyline
 90
2
 70
0
 10
-130.927785
 20
-17.372835
 30
0.0
 10
-124.192595
 20
-10.637645
 30
0.0
  0
SPLINE
  5
13e
100
AcDbEntity
  8
0
 62
7
100
AcDbSpline
 70
8
 71
3
 72
8
 73
4
 74
0
 40
0
 40
0
 40
0
 40
0
 40
1
 40
1
 40
1
 40
1
 10
-86.474976
 20
61.426201
 30
0.0
 10
-86.474976
 20
61.879581
 30
0.0
 10
-86.169958
 20
62.276232
 30
0.0
 10
-85.731783
 20
62.392663
 30
0.0
  0
SPLINE
  5
13f
100
AcDbEntity
  8
0
 62
7
100
AcDbSpline
 70
8
 71
3
 72
8
 73
4
 74
0
 40
0
 40
0
 40
0
 40
0
 40
1
 40
1
 40
1
 40
1
 10
-85.731783
 20
62.392663
 30
0.0
 10
-54.776110
 20
70.618158
 30
0.0
 10
-22.045827
 20
69.185486
 30
0.0
 10
8.072735
 20
58.286647
 30
0.0
  0
SPLINE
  5
140
100
AcDbEntity
  8
0
 62
7
100
AcDbSpline
 70
8
 71
3
 72
8
 73
4
 74
0
 40
0
 40
0
 40
0
 40
0
 40
1
 40
1
 40
1
 40
1
 10
8.072735
 20
58.286647
 30
0.0
 10
9.251164
 20
57.860215
 30
0.0
 10
10.424448
 20
57.419698
 30
0.0
 10
11.592336
 20
56.965191
 30
0.0
  0
SPLINE
  5
141
100
AcDbEntity
  8
0
 62
7
100
AcDbSpline
 70
8
 71
3
 72
8
 73
4
 74
0
 40
0
 40
0
 40
0
 40
0
 40
1
 40
1
 40
1
 40
1
 10
11.592336
 20
56.965191
 30
0.0
 10
17.570151
 20
54.638805
 30
0.0
 10
23.399878
 20
51.948496
 30
0.0
 10
29.048778
 20
48.909374
 30
0.0
  0
SPLINE
  5
142
100
AcDbEntity
  8
0
 62
7
100
AcDbSpline
 70
8
 71
3
 72
8
 73
4
 74
0
 40
0
 40
0
 40
0
 40
0
 40
1
 40
1
 40
1
 40
1
 10
29.048778
 20
48.909374
 30
0.0
 10
29.372863
 20
48.735015
 30
0.0
 10
29.574992
 20
48.396744
 30
0.0
 10
29.574992
 20
48.028734
 30
0.0
  0
LWPOLYLINE
  5
143
100
AcDbEntity
  8
0
 62
7
100
AcDbPolyline
 90
2
 70
0
 10
-86.474976
 20
14.831255
 30
0.0
 10
-86.474976
 20
61.426201
 30
0.0
  0
SPLINE
  5
144
100
AcDbEntity
  8
0
 62
7
100
AcDbSpline
 70
8
 71
3
 72
8
 73
4
 74
0
 40
0
 40
0
 40
0
 40
0
 40
1
 40
1
 40
1
 40
1
 10
29.574992
 20
-9.524997
 30
0.0
 10
29.574992
 20
-9.790214
 30
0.0
 10
29.469635
 20
-10.044568
 30
0.0
 10
29.282099
 20
-10.232104
 30
0.0
  0
SPLINE
  5
145
100
AcDbEntity
  8
0
 62
7
100
AcDbSpline
 70
8
 71
3
 72
8
 73
4
 74
0
 40
0
 40
0
 40
0
 40
0
 40
1
 40
1
 40
1
 40
1
 10
29.282099
 20
-10.232104
 30
0.0
 10
29.094562
 20
-10.419640
 30
0.0
 10
28.840208
 20
-10.524997
 30
0.0
 10
28.574992
 20
-10.524997
 30
0.0
  0
LWPOLYLINE
  5
146
100
AcDbEntity
  8
0
 62
7
100
AcDbPolyline
 90
2
 70
0
 10
29.574992
 20
48.028734
 30
0.0
 10
29.574992
 20
-9.524997
 30
0.0
  0
LWPOLYLINE
  5
147
100
AcDbEntity
  8
0
 62
7
100
AcDbPolyline
 90
1
 70
1
 10
28.574992
 20
-10.524997
 30
0.0
  0
SPLINE
  5
148
100
AcDbEntity
  8
0
 62
7
100
AcDbSpline
 70
8
 71
3
 72
8
 73
4
 74
0
 40
0
 40
0
 40
0
 40
0
 40
1
 40
1
 40
1
 40
1
 10
-45.099987
 20
11.299997
 30
0.0
 10
-45.099987
 20
11.220432
 30
0.0
 10
-45.068380
 20
11.144126
 30
0.0
 10
-45.012119
 20
11.087865
 30
0.0
  0
SPLINE
  5
149
100
AcDbEntity
  8
0
 62
7
100
AcDbSpline
 70
8
 71
3
 72
8
 73
4
 74
0
 40
0
 40
0
 40
0
 40
0
 40
1
 40
1
 40
1
 40
1
 10
-45.012119
 20
11.087865
 30
0.0
 10
-44.955859
 20
11.031604
 30
0.0
 10
-44.879552
 20
10.999997
 30
0.0
 10
-44.799988
 20
10.999997
 30
0.0
  0
LWPOLYLINE
  5
14a
100
AcDbEntity
  8
0
 62
7
100
AcDbPolyline
 90
2
 70
0
 10
-45.099987
 20
24.699993
 30
0.0
 10
-45.099987
 20
11.299997
 30
0.0
  0
SPLINE
  5
14b
100
AcDbEntity
  8
0
 62
7
100
AcDbSpline
 70
8
 71
3
 72
8
 73
4
 74
0
 40
0
 40
0
 40
0
 40
0
 40
1
 40
1
 40
1
 40
1
 10
-31.399991
 20
10.999997
 30
0.0
 10
-31.320426
 20
10.999997
 30
0.0
 10
-31.244120
 20
11.031604
 30
0.0
 10
-31.187859
 20
11.087865
 30
0.0
  0
SPLINE
  5
14c
100
AcDbEntity
  8
0
 62
7
100
AcDbSpline
 70
8
 71
3
 72
8
 73
4
 74
0
 40
0
 40
0
 40
0
 40
0
 40
1
 40
1
 40
1
 40
1
 10
-31.187859
 20
11.087865
 30
0.0
 10
-31.131598
 20
11.144126
 30
0.0
 10
-31.099991
 20
11.220432
 30
0.0
 10
-31.099991
 20
11.299997
 30
0.0
  0
LWPOLYLINE
  5
14d
100
AcDbEntity
  8
0
 62
7
100
AcDbPolyline
 90
2
 70
0
 10
-44.799988
 20
10.999997
 30
0.0
 10
-31.399991
 20
10.999997
 30
0.0
  0
SPLINE
  5
14e
100
AcDbEntity
  8
0
 62
7
100
AcDbSpline
 70
8
 71
3
 72
8
 73
4
 74
0
 40
0
 40
0
 40
0
 40
0
 40
1
 40
1
 40
1
 40
1
 10
-31.099991
 20
24.699993
 30
0.0
 10
-31.099991
 20
24.779558
 30
0.0
 10
-31.131598
 20
24.855864
 30
0.0
 10
-31.187859
 20
24.912125
 30
0.0
  0
SPLINE
  5
14f
100
AcDbEntity
  8
0
 62
7
100
AcDbSpline
 70
8
 71
3
 72
8
 73
4
 74
0
 40
0
 40
0
 40
0
 40
0
 40
1
 40
1
 40
1
 40
1
 10
-31.187859
 20
24.912125
 30
0.0
 10
-31.244120
 20
24.968386
 30
0.0
 10
-31.320426
 20
24.999993
 30
0.0
 10
-31.399991
 20
24.999993
 30
0.0
  0
LWPOLYLINE
  5
150
100
AcDbEntity
  8
0
 62
7
100
AcDbPolyline
 90
2
 70
0
 10
-31.099991
 20
11.299997
 30
0.0
 10
-31.099991
 20
24.699993
 30
0.0
  0
SPLINE
  5
151
100
AcDbEntity
  8
0
 62
7
100
AcDbSpline
 70
8
 71
3
 72
8
 73
4
 74
0
 40
0
 40
0
 40
0
 40
0
 40
1
 40
1
 40
1
 40
1
 10
-44.799988
 20
24.999993
 30
0.0
 10
-44.879552
 20
24.999993
 30
0.0
 10
-44.955859
 20
24.968386
 30
0.0
 10
-45.012119
 20
24.912125
 30
0.0
  0
SPLINE
  5
152
100
AcDbEntity
  8
0
 62
7
100
AcDbSpline
 70
8
 71
3
 72
8
 73
4
 74
0
 40
0
 40
0
 40
0
 40
0
 40
1
 40
1
 40
1
 40
1
 10
-45.012119
 20
24.912125
 30
0.0
 10
-45.068380
 20
24.855864
 30
0.0
 10
-45.099987
 20
24.779558
 30
0.0
 10
-45.099987
 20
24.699993
 30
0.0
  0
LWPOLYLINE
  5
153
100
AcDbEntity
  8
0
 62
7
100
AcDbPolyline
 90
2
 70
0
 10
-31.399991
 20
24.999993
 30
0.0
 10
-44.799988
 20
24.999993
 30
0.0
  0
LWPOLYLINE
  5
154
100
AcDbEntity
  8
0
 62
7
100
AcDbPolyline
 90
1
 70
1
 10
-45.099987
 20
24.699993
 30
0.0
  0
SPLINE
  5
155
100
AcDbEntity
  8
0
 62
7
100
AcDbSpline
 70
8
 71
3
 72
8
 73
4
 74
0
 40
0
 40
0
 40
0
 40
0
 40
1
 40
1
 40
1
 40
1
 10
-31.099991
 20
62.799982
 30
0.0
 10
-31.099991
 20
62.879547
 30
0.0
 10
-31.131598
 20
62.955854
 30
0.0
 10
-31.187859
 20
63.012114
 30
0.0
  0
SPLINE
  5
156
100
AcDbEntity
  8
0
 62
7
100
AcDbSpline
 70
8
 71
3
 72
8
 73
4
 74
0
 40
0
 40
0
 40
0
 40
0
 40
1
 40
1
 40
1
 40
1
 10
-31.187859
 20
63.012114
 30
0.0
 10
-31.244120
 20
63.068375
 30
0.0
 10
-31.320426
 20
63.099982
 30
0.0
 10
-31.399991
 20
63.099982
 30
0.0
  0
LWPOLYLINE
  5
157
100
AcDbEntity
  8
0
 62
7
100
AcDbPolyline
 90
2
 70
0
 10
-31.099991
 20
49.399986
 30
0.0
 10
-31.099991
 20
62.799982
 30
0.0
  0
SPLINE
  5
158
100
AcDbEntity
  8
0
 62
7
100
AcDbSpline
 70
8
 71
3
 72
8
 73
4
 74
0
 40
0
 40
0
 40
0
 40
0
 40
1
 40
1
 40
1
 40
1
 10
-44.799988
 20
63.099982
 30
0.0
 10
-44.879552
 20
63.099982
 30
0.0
 10
-44.955859
 20
63.068375
 30
0.0
 10
-45.012119
 20
63.012114
 30
0.0
  0
SPLINE
  5
159
100
AcDbEntity
  8
0
 62
7
100
AcDbSpline
 70
8
 71
3
 72
8
 73
4
 74
0
 40
0
 40
0
 40
0
 40
0
 40
1
 40
1
 40
1
 40
1
 10
-45.012119
 20
63.012114
 30
0.0
 10
-45.068380
 20
62.955854
 30
0.0
 10
-45.099987
 20
62.879547
 30
0.0
 10
-45.099987
 20
62.799982
 30
0.0
  0
LWPOLYLINE
  5
15a
100
AcDbEntity
  8
0
 62
7
100
AcDbPolyline
 90
2
 70
0
 10
-31.399991
 20
63.099982
 30
0.0
 10
-44.799988
 20
63.099982
 30
0.0
  0
SPLINE
  5
15b
100
AcDbEntity
  8
0
 62
7
100
AcDbSpline
 70
8
 71
3
 72
8
 73
4
 74
0
 40
0
 40
0
 40
0
 40
0
 40
1
 40
1
 40
1
 40
1
 10
-45.099987
 20
49.399986
 30
0.0
 10
-45.099987
 20
49.320421
 30
0.0
 10
-45.068380
 20
49.244115
 30
0.0
 10
-45.012119
 20
49.187854
 30
0.0
  0
SPLINE
  5
15c
100
AcDbEntity
  8
0
 62
7
100
AcDbSpline
 70
8
 71
3
 72
8
 73
4
 74
0
 40
0
 40
0
 40
0
 40
0
 40
1
 40
1
 40
1
 40
1
 10
-45.012119
 20
49.187854
 30
0.0
 10
-44.955859
 20
49.131593
 30
0.0
 10
-44.879552
 20
49.099986
 30
0.0
 10
-44.799988
 20
49.099986
 30
0.0
  0
LWPOLYLINE
  5
15d
100
AcDbEntity
  8
0
 62
7
100
AcDbPolyline
 90
2
 70
0
 10
-45.099987
 20
62.799982
 30
0.0
 10
-45.099987
 20
49.399986
 30
0.0
  0
SPLINE
  5
15e
100
AcDbEntity
  8
0
 62
7
100
AcDbSpline
 70
8
 71
3
 72
8
 73
4
 74
0
 40
0
 40
0
 40
0
 40
0
 40
1
 40
1
 40
1
 40
1
 10
-31.399991
 20
49.099986
 30
0.0
 10
-31.320426
 20
49.099986
 30
0.0
 10
-31.244120
 20
49.131593
 30
0.0
 10
-31.187859
 20
49.187854
 30
0.0
  0
SPLINE
  5
15f
100
AcDbEntity
  8
0
 62
7
100
AcDbSpline
 70
8
 71
3
 72
8
 73
4
 74
0
 40
0
 40
0
 40
0
 40
0
 40
1
 40
1
 40
1
 40
1
 10
-31.187859
 20
49.187854
 30
0.0
 10
-31.131598
 20
49.244115
 30
0.0
 10
-31.099991
 20
49.320421
 30
0.0
 10
-31.099991
 20
49.399986
 30
0.0
  0
LWPOLYLINE
  5
160
100
AcDbEntity
  8
0
 62
7
100
AcDbPolyline
 90
2
 70
0
 10
-44.799988
 20
49.099986
 30
0.0
 10
-31.399991
 20
49.099986
 30
0.0
  0
LWPOLYLINE
  5
161
100
AcDbEntity
  8
0
 62
7
100
AcDbPolyline
 90
1
 70
1
 10
-31.099991
 20
49.399986
 30
0.0
  0
SPLINE
  5
162
100
AcDbEntity
  8
0
 62
7
100
AcDbSpline
 70
8
 71
3
 72
8
 73
4
 74
0
 40
0
 40
0
 40
0
 40
0
 40
1
 40
1
 40
1
 40
1
 10
-83.199977
 20
2.299999
 30
0.0
 10
-83.199977
 20
2.220434
 30
0.0
 10
-83.168370
 20
2.144128
 30
0.0
 10
-83.112109
 20
2.087867
 30
0.0
  0
SPLINE
  5
163
100
AcDbEntity
  8
0
 62
7
100
AcDbSpline
 70
8
 71
3
 72
8
 73
4
 74
0
 40
0
 40
0
 40
0
 40
0
 40
1
 40
1
 40
1
 40
1
 10
-83.112109
 20
2.087867
 30
0.0
 10
-83.055848
 20
2.031606
 30
0.0
 10
-82.979542
 20
1.999999
 30
0.0
 10
-82.899977
 20
1.999999
 30
0.0
  0
LWPOLYLINE
  5
164
100
AcDbEntity
  8
0
 62
7
100
AcDbPolyline
 90
2
 70
0
 10
-83.199977
 20
15.699996
 30
0.0
 10
-83.199977
 20
2.299999
 30
0.0
  0
SPLINE
  5
165
100
AcDbEntity
  8
0
 62
7
100
AcDbSpline
 70
8
 71
3
 72
8
 73
4
 74
0
 40
0
 40
0
 40
0
 40
0
 40
1
 40
1
 40
1
 40
1
 10
-69.499980
 20
1.999999
 30
0.0
 10
-69.420415
 20
1.999999
 30
0.0
 10
-69.344109
 20
2.031606
 30
0.0
 10
-69.287848
 20
2.087867
 30
0.0
  0
SPLINE
  5
166
100
AcDbEntity
  8
0
 62
7
100
AcDbSpline
 70
8
 71
3
 72
8
 73
4
 74
0
 40
0
 40
0
 40
0
 40
0
 40
1
 40
1
 40
1
 40
1
 10
-69.287848
 20
2.087867
 30
0.0
 10
-69.231588
 20
2.144128
 30
0.0
 10
-69.199981
 20
2.220434
 30
0.0
 10
-69.199981
 20
2.299999
 30
0.0
  0
LWPOLYLINE
  5
167
100
AcDbEntity
  8
0
 62
7
100
AcDbPolyline
 90
2
 70
0
 10
-82.899977
 20
1.999999
 30
0.0
 10
-69.499980
 20
1.999999
 30
0.0
  0
SPLINE
  5
168
100
AcDbEntity
  8
0
 62
7
100
AcDbSpline
 70
8
 71
3
 72
8
 73
4
 74
0
 40
0
 40
0
 40
0
 40
0
 40
1
 40
1
 40
1
 40
1
 10
-69.199981
 20
15.699996
 30
0.0
 10
-69.199981
 20
15.779561
 30
0.0
 10
-69.231588
 20
15.855867
 30
0.0
 10
-69.287848
 20
15.912128
 30
0.0
  0
SPLINE
  5
169
100
AcDbEntity
  8
0
 62
7
100
AcDbSpline
 70
8
 71
3
 72
8
 73
4
 74
0
 40
0
 40
0
 40
0
 40
0
 40
1
 40
1
 40
1
 40
1
 10
-69.287848
 20
15.912128
 30
0.0
 10
-69.344109
 20
15.968388
 30
0.0
 10
-69.420415
 20
15.999996
 30
0.0
 10
-69.499980
 20
15.999996
 30
0.0
  0
LWPOLYLINE
  5
16a
100
AcDbEntity
  8
0
 62
7
100
AcDbPolyline
 90
2
 70
0
 10
-69.199981
 20
2.299999
 30
0.0
 10
-69.199981
 20
15.699996
 30
0.0
  0
SPLINE
  5
16b
100
AcDbEntity
  8
0
 62
7
100
AcDbSpline
 70
8
 71
3
 72
8
 73
4
 74
0
 40
0
 40
0
 40
0
 40
0
 40
1
 40
1
 40
1
 40
1
 10
-82.899977
 20
15.999996
 30
0.0
 10
-82.979542
 20
15.999996
 30
0.0
 10
-83.055848
 20
15.968388
 30
0.0
 10
-83.112109
 20
15.912128
 30
0.0
  0
SPLINE
  5
16c
100
AcDbEntity
  8
0
 62
7
100
AcDbSpline
 70
8
 71
3
 72
8
 73
4
 74
0
 40
0
 40
0
 40
0
 40
0
 40
1
 40
1
 40
1
 40
1
 10
-83.112109
 20
15.912128
 30
0.0
 10
-83.168370
 20
15.855867
 30
0.0
 10
-83.199977
 20
15.779561
 30
0.0
 10
-83.199977
 20
15.699996
 30
0.0
  0
LWPOLYLINE
  5
16d
100
AcDbEntity
  8
0
 62
7
100
AcDbPolyline
 90
2
 70
0
 10
-69.499980
 20
15.999996
 30
0.0
 10
-82.899977
 20
15.999996
 30
0.0
  0
LWPOLYLINE
  5
16e
100
AcDbEntity
  8
0
 62
7
100
AcDbPolyline
 90
1
 70
1
 10
-83.199977
 20
15.699996
 30
0.0
  0
SPLINE
  5
16f
100
AcDbEntity
  8
0
 62
7
100
AcDbSpline
 70
8
 71
3
 72
8
 73
4
 74
0
 40
0
 40
0
 40
0
 40
0
 40
1
 40
1
 40
1
 40
1
 10
-52.385877
 20
-14.269824
 30
0.0
 10
-52.385877
 20
-14.349389
 30
0.0
 10
-52.354270
 20
-14.425695
 30
0.0
 10
-52.298009
 20
-14.481956
 30
0.0
  0
SPLINE
  5
170
100
AcDbEntity
  8
0
 62
7
100
AcDbSpline
 70
8
 71
3
 72
8
 73
4
 74
0
 40
0
 40
0
 40
0
 40
0
 40
1
 40
1
 40
1
 40
1
 10
-52.298009
 20
-14.481956
 30
0.0
 10
-52.241748
 20
-14.538217
 30
0.0
 10
-52.165442
 20
-14.569824
 30
0.0
 10
-52.085877
 20
-14.569824
 30
0.0
  0
LWPOLYLINE
  5
171
100
AcDbEntity
  8
0
 62
7
100
AcDbPolyline
 90
2
 70
0
 10
-52.385877
 20
-0.869828
 30
0.0
 10
-52.385877
 20
-14.269824
 30
0.0
  0
SPLINE
  5
172
100
AcDbEntity
  8
0
 62
7
100
AcDbSpline
 70
8
 71
3
 72
8
 73
4
 74
0
 40
0
 40
0
 40
0
 40
0
 40
1
 40
1
 40
1
 40
1
 10
-38.685880
 20
-14.569824
 30
0.0
 10
-38.606315
 20
-14.569824
 30
0.0
 10
-38.530009
 20
-14.538217
 30
0.0
 10
-38.473748
 20
-14.481956
 30
0.0
  0
SPLINE
  5
173
100
AcDbEntity
  8
0
 62
7
100
AcDbSpline
 70
8
 71
3
 72
8
 73
4
 74
0
 40
0
 40
0
 40
0
 40
0
 40
1
 40
1
 40
1
 40
1
 10
-38.473748
 20
-14.481956
 30
0.0
 10
-38.417488
 20
-14.425695
 30
0.0
 10
-38.385881
 20
-14.349389
 30
0.0
 10
-38.385881
 20
-14.269824
 30
0.0
  0
LWPOLYLINE
  5
174
100
AcDbEntity
  8
0
 62
7
100
AcDbPolyline
 90
2
 70
0
 10
-52.085877
 20
-14.569824
 30
0.0
 10
-38.685880
 20
-14.569824
 30
0.0
  0
SPLINE
  5
175
100
AcDbEntity
  8
0
 62
7
100
AcDbSpline
 70
8
 71
3
 72
8
 73
4
 74
0
 40
0
 40
0
 40
0
 40
0
 40
1
 40
1
 40
1
 40
1
 10
-38.385881
 20
-0.869828
 30
0.0
 10
-38.385881
 20
-0.790263
 30
0.0
 10
-38.417488
 20
-0.713956
 30
0.0
 10
-38.473748
 20
-0.657696
 30
0.0
  0
SPLINE
  5
176
100
AcDbEntity
  8
0
 62
7
100
AcDbSpline
 70
8
 71
3
 72
8
 73
4
 74
0
 40
0
 40
0
 40
0
 40
0
 40
1
 40
1
 40
1
 40
1
 10
-38.473748
 20
-0.657696
 30
0.0
 10
-38.530009
 20
-0.601435
 30
0.0
 10
-38.606315
 20
-0.569828
 30
0.0
 10
-38.685880
 20
-0.569828
 30
0.0
  0
LWPOLYLINE
  5
177
100
AcDbEntity
  8
0
 62
7
100
AcDbPolyline
 90
2
 70
0
 10
-38.385881
 20
-14.269824
 30
0.0
 10
-38.385881
 20
-0.869828
 30
0.0
  0
SPLINE
  5
178
100
AcDbEntity
  8
0
 62
7
100
AcDbSpline
 70
8
 71
3
 72
8
 73
4
 74
0
 40
0
 40
0
 40
0
 40
0
 40
1
 40
1
 40
1
 40
1
 10
-52.085877
 20
-0.569828
 30
0.0
 10
-52.165442
 20
-0.569828
 30
0.0
 10
-52.241748
 20
-0.601435
 30
0.0
 10
-52.298009
 20
-0.657696
 30
0.0
  0
SPLINE
  5
179
100
AcDbEntity
  8
0
 62
7
100
AcDbSpline
 70
8
 71
3
 72
8
 73
4
 74
0
 40
0
 40
0
 40
0
 40
0
 40
1
 40
1
 40
1
 40
1
 10
-52.298009
 20
-0.657696
 30
0.0
 10
-52.354270
 20
-0.713956
 30
0.0
 10
-52.385877
 20
-0.790263
 30
0.0
 10
-52.385877
 20
-0.869828
 30
0.0
  0
LWPOLYLINE
  5
17a
100
AcDbEntity
  8
0
 62
7
100
AcDbPolyline
 90
2
 70
0
 10
-38.685880
 20
-0.569828
 30
0.0
 10
-52.085877
 20
-0.569828
 30
0.0
  0
LWPOLYLINE
  5
17b
100
AcDbEntity
  8
0
 62
7
100
AcDbPolyline
 90
1
 70
1
 10
-52.385877
 20
-0.869828
 30
0.0
  0
SPLINE
  5
17c
100
AcDbEntity
  8
0
 62
7
100
AcDbSpline
 70
8
 71
3
 72
8
 73
4
 74
0
 40
0
 40
0
 40
0
 40
0
 40
1
 40
1
 40
1
 40
1
 10
-33.345957
 20
-14.269720
 30
0.0
 10
-33.345960
 20
-14.349287
 30
0.0
 10
-33.314354
 20
-14.425596
 30
0.0
 10
-33.258093
 20
-14.481859
 30
0.0
  0
SPLINE
  5
17d
100
AcDbEntity
  8
0
 62
7
100
AcDbSpline
 70
8
 71
3
 72
8
 73
4
 74
0
 40
0
 40
0
 40
0
 40
0
 40
1
 40
1
 40
1
 40
1
 10
-33.258093
 20
-14.481859
 30
0.0
 10
-33.201832
 20
-14.538123
 30
0.0
 10
-33.125524
 20
-14.569731
 30
0.0
 10
-33.045957
 20
-14.569731
 30
0.0
  0
LWPOLYLINE
  5
17e
100
AcDbEntity
  8
0
 62
7
100
AcDbPolyline
 90
2
 70
0
 10
-33.345957
 20
-0.869716
 30
0.0
 10
-33.345957
 20
-14.269720
 30
0.0
  0
SPLINE
  5
17f
100
AcDbEntity
  8
0
 62
7
100
AcDbSpline
 70
8
 71
3
 72
8
 73
4
 74
0
 40
0
 40
0
 40
0
 40
0
 40
1
 40
1
 40
1
 40
1
 10
-19.645960
 20
-14.569731
 30
0.0
 10
-19.566393
 20
-14.569731
 30
0.0
 10
-19.490085
 20
-14.538123
 30
0.0
 10
-19.433824
 20
-14.481859
 30
0.0
  0
SPLINE
  5
180
100
AcDbEntity
  8
0
 62
7
100
AcDbSpline
 70
8
 71
3
 72
8
 73
4
 74
0
 40
0
 40
0
 40
0
 40
0
 40
1
 40
1
 40
1
 40
1
 10
-19.433824
 20
-14.481859
 30
0.0
 10
-19.377562
 20
-14.425596
 30
0.0
 10
-19.345956
 20
-14.349287
 30
0.0
 10
-19.345959
 20
-14.269720
 30
0.0
  0
LWPOLYLINE
  5
181
100
AcDbEntity
  8
0
 62
7
100
AcDbPolyline
 90
2
 70
0
 10
-33.045957
 20
-14.569731
 30
0.0
 10
-19.645960
 20
-14.569731
 30
0.0
  0
SPLINE
  5
182
100
AcDbEntity
  8
0
 62
7
100
AcDbSpline
 70
8
 71
3
 72
8
 73
4
 74
0
 40
0
 40
0
 40
0
 40
0
 40
1
 40
1
 40
1
 40
1
 10
-19.345959
 20
-0.869716
 30
0.0
 10
-19.345968
 20
-0.704036
 30
0.0
 10
-19.480280
 20
-0.569731
 30
0.0
 10
-19.645960
 20
-0.569731
 30
0.0
  0
LWPOLYLINE
  5
183
100
AcDbEntity
  8
0
 62
7
100
AcDbPolyline
 90
2
 70
0
 10
-19.345959
 20
-14.269720
 30
0.0
 10
-19.345959
 20
-0.869716
 30
0.0
  0
SPLINE
  5
184
100
AcDbEntity
  8
0
 62
7
100
AcDbSpline
 70
8
 71
3
 72
8
 73
4
 74
0
 40
0
 40
0
 40
0
 40
0
 40
1
 40
1
 40
1
 40
1
 10
-33.045957
 20
-0.569731
 30
0.0
 10
-33.211636
 20
-0.569731
 30
0.0
 10
-33.345949
 20
-0.704036
 30
0.0
 10
-33.345957
 20
-0.869716
 30
0.0
  0
LWPOLYLINE
  5
185
100
AcDbEntity
  8
0
 62
7
100
AcDbPolyline
 90
2
 70
0
 10
-19.645960
 20
-0.569731
 30
0.0
 10
-33.045957
 20
-0.569731
 30
0.0
  0
LWPOLYLINE
  5
186
100
AcDbEntity
  8
0
 62
7
100
AcDbPolyline
 90
1
 70
1
 10
-33.345957
 20
-0.869716
 30
0.0
  0
SPLINE
  5
187
100
AcDbEntity
  8
0
 62
7
100
AcDbSpline
 70
8
 71
3
 72
8
 73
4
 74
0
 40
0
 40
0
 40
0
 40
0
 40
1
 40
1
 40
1
 40
1
 10
-12.349996
 20
43.099988
 30
0.0
 10
-12.270432
 20
43.099988
 30
0.0
 10
-12.194125
 20
43.131595
 30
0.0
 10
-12.137865
 20
43.187856
 30
0.0
  0
SPLINE
  5
188
100
AcDbEntity
  8
0
 62
7
100
AcDbSpline
 70
8
 71
3
 72
8
 73
4
 74
0
 40
0
 40
0
 40
0
 40
0
 40
1
 40
1
 40
1
 40
1
 10
-12.137865
 20
43.187856
 30
0.0
 10
-12.081604
 20
43.244117
 30
0.0
 10
-12.049997
 20
43.320423
 30
0.0
 10
-12.049997
 20
43.399988
 30
0.0
  0
LWPOLYLINE
  5
189
100
AcDbEntity
  8
0
 62
7
100
AcDbPolyline
 90
2
 70
0
 10
-25.749993
 20
43.099988
 30
0.0
 10
-12.349996
 20
43.099988
 30
0.0
  0
SPLINE
  5
18a
100
AcDbEntity
  8
0
 62
7
100
AcDbSpline
 70
8
 71
3
 72
8
 73
4
 74
0
 40
0
 40
0
 40
0
 40
0
 40
1
 40
1
 40
1
 40
1
 10
-12.049997
 20
56.799984
 30
0.0
 10
-12.049997
 20
56.879549
 30
0.0
 10
-12.081604
 20
56.955855
 30
0.0
 10
-12.137864
 20
57.012116
 30
0.0
  0
SPLINE
  5
18b
100
AcDbEntity
  8
0
 62
7
100
AcDbSpline
 70
8
 71
3
 72
8
 73
4
 74
0
 40
0
 40
0
 40
0
 40
0
 40
1
 40
1
 40
1
 40
1
 10
-12.137864
 20
57.012116
 30
0.0
 10
-12.194125
 20
57.068377
 30
0.0
 10
-12.270431
 20
57.099984
 30
0.0
 10
-12.349996
 20
57.099984
 30
0.0
  0
LWPOLYLINE
  5
18c
100
AcDbEntity
  8
0
 62
7
100
AcDbPolyline
 90
2
 70
0
 10
-12.049997
 20
43.399988
 30
0.0
 10
-12.049997
 20
56.799984
 30
0.0
  0
SPLINE
  5
18d
100
AcDbEntity
  8
0
 62
7
100
AcDbSpline
 70
8
 71
3
 72
8
 73
4
 74
0
 40
0
 40
0
 40
0
 40
0
 40
1
 40
1
 40
1
 40
1
 10
-25.749993
 20
57.099984
 30
0.0
 10
-25.829558
 20
57.099984
 30
0.0
 10
-25.905864
 20
57.068377
 30
0.0
 10
-25.962125
 20
57.012116
 30
0.0
  0
SPLINE
  5
18e
100
AcDbEntity
  8
0
 62
7
100
AcDbSpline
 70
8
 71
3
 72
8
 73
4
 74
0
 40
0
 40
0
 40
0
 40
0
 40
1
 40
1
 40
1
 40
1
 10
-25.962125
 20
57.012116
 30
0.0
 10
-26.018386
 20
56.955855
 30
0.0
 10
-26.049993
 20
56.879549
 30
0.0
 10
-26.049993
 20
56.799984
 30
0.0
  0
LWPOLYLINE
  5
18f
100
AcDbEntity
  8
0
 62
7
100
AcDbPolyline
 90
2
 70
0
 10
-12.349996
 20
57.099984
 30
0.0
 10
-25.749993
 20
57.099984
 30
0.0
  0
SPLINE
  5
190
100
AcDbEntity
  8
0
 62
7
100
AcDbSpline
 70
8
 71
3
 72
8
 73
4
 74
0
 40
0
 40
0
 40
0
 40
0
 40
1
 40
1
 40
1
 40
1
 10
-26.049993
 20
43.399988
 30
0.0
 10
-26.049993
 20
43.320423
 30
0.0
 10
-26.018386
 20
43.244117
 30
0.0
 10
-25.962125
 20
43.187856
 30
0.0
  0
SPLINE
  5
191
100
AcDbEntity
  8
0
 62
7
100
AcDbSpline
 70
8
 71
3
 72
8
 73
4
 74
0
 40
0
 40
0
 40
0
 40
0
 40
1
 40
1
 40
1
 40
1
 10
-25.962125
 20
43.187856
 30
0.0
 10
-25.905864
 20
43.131595
 30
0.0
 10
-25.829558
 20
43.099988
 30
0.0
 10
-25.749993
 20
43.099988
 30
0.0
  0
LWPOLYLINE
  5
192
100
AcDbEntity
  8
0
 62
7
100
AcDbPolyline
 90
2
 70
0
 10
-26.049993
 20
56.799984
 30
0.0
 10
-26.049993
 20
43.399988
 30
0.0
  0
LWPOLYLINE
  5
193
100
AcDbEntity
  8
0
 62
7
100
AcDbPolyline
 90
1
 70
1
 10
-25.749993
 20
43.099988
 30
0.0
  0
SPLINE
  5
194
100
AcDbEntity
  8
0
 62
7
100
AcDbSpline
 70
8
 71
3
 72
8
 73
4
 74
0
 40
0
 40
0
 40
0
 40
0
 40
1
 40
1
 40
1
 40
1
 10
-6.699998
 20
26.049993
 30
0.0
 10
-6.779563
 20
26.049993
 30
0.0
 10
-6.855869
 20
26.018386
 30
0.0
 10
-6.912130
 20
25.962125
 30
0.0
  0
SPLINE
  5
195
100
AcDbEntity
  8
0
 62
7
100
AcDbSpline
 70
8
 71
3
 72
8
 73
4
 74
0
 40
0
 40
0
 40
0
 40
0
 40
1
 40
1
 40
1
 40
1
 10
-6.912130
 20
25.962125
 30
0.0
 10
-6.968391
 20
25.905864
 30
0.0
 10
-6.999998
 20
25.829558
 30
0.0
 10
-6.999998
 20
25.749993
 30
0.0
  0
LWPOLYLINE
  5
196
100
AcDbEntity
  8
0
 62
7
100
AcDbPolyline
 90
2
 70
0
 10
6.699998
 20
26.049993
 30
0.0
 10
-6.699998
 20
26.049993
 30
0.0
  0
SPLINE
  5
197
100
AcDbEntity
  8
0
 62
7
100
AcDbSpline
 70
8
 71
3
 72
8
 73
4
 74
0
 40
0
 40
0
 40
0
 40
0
 40
1
 40
1
 40
1
 40
1
 10
-6.999998
 20
12.349996
 30
0.0
 10
-6.999998
 20
12.270432
 30
0.0
 10
-6.968391
 20
12.194125
 30
0.0
 10
-6.912130
 20
12.137865
 30
0.0
  0
SPLINE
  5
198
100
AcDbEntity
  8
0
 62
7
100
AcDbSpline
 70
8
 71
3
 72
8
 73
4
 74
0
 40
0
 40
0
 40
0
 40
0
 40
1
 40
1
 40
1
 40
1
 10
-6.912130
 20
12.137865
 30
0.0
 10
-6.855869
 20
12.081604
 30
0.0
 10
-6.779563
 20
12.049997
 30
0.0
 10
-6.699998
 20
12.049997
 30
0.0
  0
LWPOLYLINE
  5
199
100
AcDbEntity
  8
0
 62
7
100
AcDbPolyline
 90
2
 70
0
 10
-6.999998
 20
25.749993
 30
0.0
 10
-6.999998
 20
12.349996
 30
0.0
  0
SPLINE
  5
19a
100
AcDbEntity
  8
0
 62
7
100
AcDbSpline
 70
8
 71
3
 72
8
 73
4
 74
0
 40
0
 40
0
 40
0
 40
0
 40
1
 40
1
 40
1
 40
1
 10
6.699998
 20
12.049997
 30
0.0
 10
6.779563
 20
12.049997
 30
0.0
 10
6.855869
 20
12.081604
 30
0.0
 10
6.912130
 20
12.137865
 30
0.0
  0
SPLINE
  5
19b
100
AcDbEntity
  8
0
 62
7
100
AcDbSpline
 70
8
 71
3
 72
8
 73
4
 74
0
 40
0
 40
0
 40
0
 40
0
 40
1
 40
1
 40
1
 40
1
 10
6.912130
 20
12.137865
 30
0.0
 10
6.968391
 20
12.194125
 30
0.0
 10
6.999998
 20
12.270432
 30
0.0
 10
6.999998
 20
12.349996
 30
0.0
  0
LWPOLYLINE
  5
19c
100
AcDbEntity
  8
0
 62
7
100
AcDbPolyline
 90
2
 70
0
 10
-6.699998
 20
12.049997
 30
0.0
 10
6.699998
 20
12.049997
 30
0.0
  0
SPLINE
  5
19d
100
AcDbEntity
  8
0
 62
7
100
AcDbSpline
 70
8
 71
3
 72
8
 73
4
 74
0
 40
0
 40
0
 40
0
 40
0
 40
1
 40
1
 40
1
 40
1
 10
6.999998
 20
25.749993
 30
0.0
 10
6.999998
 20
25.829558
 30
0.0
 10
6.968391
 20
25.905864
 30
0.0
 10
6.912130
 20
25.962125
 30
0.0
  0
SPLINE
  5
19e
100
AcDbEntity
  8
0
 62
7
100
AcDbSpline
 70
8
 71
3
 72
8
 73
4
 74
0
 40
0
 40
0
 40
0
 40
0
 40
1
 40
1
 40
1
 40
1
 10
6.912130
 20
25.962125
 30
0.0
 10
6.855869
 20
26.018386
 30
0.0
 10
6.779563
 20
26.049993
 30
0.0
 10
6.699998
 20
26.049993
 30
0.0
  0
LWPOLYLINE
  5
19f
100
AcDbEntity
  8
0
 62
7
100
AcDbPolyline
 90
2
 70
0
 10
6.999998
 20
12.349996
 30
0.0
 10
6.999998
 20
25.749993
 30
0.0
  0
LWPOLYLINE
  5
1a0
100
AcDbEntity
  8
0
 62
7
100
AcDbPolyline
 90
1
 70
1
 10
6.699998
 20
26.049993
 30
0.0
  0
SPLINE
  5
1a1
100
AcDbEntity
  8
0
 62
7
100
AcDbSpline
 70
8
 71
3
 72
8
 73
4
 74
0
 40
0
 40
0
 40
0
 40
0
 40
1
 40
1
 40
1
 40
1
 10
-6.999998
 20
-6.699998
 30
0.0
 10
-6.999998
 20
-6.779563
 30
0.0
 10
-6.968391
 20
-6.855869
 30
0.0
 10
-6.912130
 20
-6.912130
 30
0.0
  0
SPLINE
  5
1a2
100
AcDbEntity
  8
0
 62
7
100
AcDbSpline
 70
8
 71
3
 72
8
 73
4
 74
0
 40
0
 40
0
 40
0
 40
0
 40
1
 40
1
 40
1
 40
1
 10
-6.912130
 20
-6.912130
 30
0.0
 10
-6.855869
 20
-6.968391
 30
0.0
 10
-6.779563
 20
-6.999998
 30
0.0
 10
-6.699998
 20
-6.999998
 30
0.0
  0
LWPOLYLINE
  5
1a3
100
AcDbEntity
  8
0
 62
7
100
AcDbPolyline
 90
2
 70
0
 10
-6.999998
 20
6.699998
 30
0.0
 10
-6.999998
 20
-6.699998
 30
0.0
  0
SPLINE
  5
1a4
100
AcDbEntity
  8
0
 62
7
100
AcDbSpline
 70
8
 71
3
 72
8
 73
4
 74
0
 40
0
 40
0
 40
0
 40
0
 40
1
 40
1
 40
1
 40
1
 10
6.699998
 20
-6.999998
 30
0.0
 10
6.779563
 20
-6.999998
 30
0.0
 10
6.855869
 20
-6.968391
 30
0.0
 10
6.912130
 20
-6.912130
 30
0.0
  0
SPLINE
  5
1a5
100
AcDbEntity
  8
0
 62
7
100
AcDbSpline
 70
8
 71
3
 72
8
 73
4
 74
0
 40
0
 40
0
 40
0
 40
0
 40
1
 40
1
 40
1
 40
1
 10
6.912130
 20
-6.912130
 30
0.0
 10
6.968391
 20
-6.855869
 30
0.0
 10
6.999998
 20
-6.779563
 30
0.0
 10
6.999998
 20
-6.699998
 30
0.0
  0
LWPOLYLINE
  5
1a6
100
AcDbEntity
  8
0
 62
7
100
AcDbPolyline
 90
2
 70
0
 10
-6.699998
 20
-6.999998
 30
0.0
 10
6.699998
 20
-6.999998
 30
0.0
  0
SPLINE
  5
1a7
100
AcDbEntity
  8
0
 62
7
100
AcDbSpline
 70
8
 71
3
 72
8
 73
4
 74
0
 40
0
 40
0
 40
0
 40
0
 40
1
 40
1
 40
1
 40
1
 10
6.999998
 20
6.699998
 30
0.0
 10
6.999998
 20
6.779563
 30
0.0
 10
6.968391
 20
6.855869
 30
0.0
 10
6.912130
 20
6.912130
 30
0.0
  0
SPLINE
  5
1a8
100
AcDbEntity
  8
0
 62
7
100
AcDbSpline
 70
8
 71
3
 72
8
 73
4
 74
0
 40
0
 40
0
 40
0
 40
0
 40
1
 40
1
 40
1
 40
1
 10
6.912130
 20
6.912130
 30
0.0
 10
6.855869
 20
6.968391
 30
0.0
 10
6.779563
 20
6.999998
 30
0.0
 10
6.699998
 20
6.999998
 30
0.0
  0
LWPOLYLINE
  5
1a9
100
AcDbEntity
  8
0
 62
7
100
AcDbPolyline
 90
2
 70
0
 10
6.999998
 20
-6.699998
 30
0.0
 10
6.999998
 20
6.699998
 30
0.0
  0
SPLINE
  5
1aa
100
AcDbEntity
  8
0
 62
7
100
AcDbSpline
 70
8
 71
3
 72
8
 73
4
 74
0
 40
0
 40
0
 40
0
 40
0
 40
1
 40
1
 40
1
 40
1
 10
-6.699998
 20
6.999998
 30
0.0
 10
-6.779563
 20
6.999998
 30
0.0
 10
-6.855869
 20
6.968391
 30
0.0
 10
-6.912130
 20
6.912130
 30
0.0
  0
SPLINE
  5
1ab
100
AcDbEntity
  8
0
 62
7
100
AcDbSpline
 70
8
 71
3
 72
8
 73
4
 74
0
 40
0
 40
0
 40
0
 40
0
 40
1
 40
1
 40
1
 40
1
 10
-6.912130
 20
6.912130
 30
0.0
 10
-6.968391
 20
6.855869
 30
0.0
 10
-6.999998
 20
6.779563
 30
0.0
 10
-6.999998
 20
6.699998
 30
0.0
  0
LWPOLYLINE
  5
1ac
100
AcDbEntity
  8
0
 62
7
100
AcDbPolyline
 90
2
 70
0
 10
6.699998
 20
6.999998
 30
0.0
 10
-6.699998
 20
6.999998
 30
0.0
  0
LWPOLYLINE
  5
1ad
100
AcDbEntity
  8
0
 62
7
100
AcDbPolyline
 90
1
 70
1
 10
-6.999998
 20
6.699998
 30
0.0
  0
SPLINE
  5
1ae
100
AcDbEntity
  8
0
 62
7
100
AcDbSpline
 70
8
 71
3
 72
8
 73
4
 74
0
 40
0
 40
0
 40
0
 40
0
 40
1
 40
1
 40
1
 40
1
 10
12.049915
 20
-6.699993
 30
0.0
 10
12.049912
 20
-6.779560
 30
0.0
 10
12.081518
 20
-6.855869
 30
0.0
 10
12.137779
 20
-6.912132
 30
0.0
  0
SPLINE
  5
1af
100
AcDbEntity
  8
0
 62
7
100
AcDbSpline
 70
8
 71
3
 72
8
 73
4
 74
0
 40
0
 40
0
 40
0
 40
0
 40
1
 40
1
 40
1
 40
1
 10
12.137779
 20
-6.912132
 30
0.0
 10
12.194041
 20
-6.968395
 30
0.0
 10
12.270348
 20
-7.000004
 30
0.0
 10
12.349915
 20
-7.000004
 30
0.0
  0
LWPOLYLINE
  5
1b0
100
AcDbEntity
  8
0
 62
7
100
AcDbPolyline
 90
2
 70
0
 10
12.049915
 20
6.699985
 30
0.0
 10
12.049915
 20
-6.699993
 30
0.0
  0
SPLINE
  5
1b1
100
AcDbEntity
  8
0
 62
7
100
AcDbSpline
 70
8
 71
3
 72
8
 73
4
 74
0
 40
0
 40
0
 40
0
 40
0
 40
1
 40
1
 40
1
 40
1
 10
25.749912
 20
-7.000004
 30
0.0
 10
25.829478
 20
-7.000004
 30
0.0
 10
25.905786
 20
-6.968395
 30
0.0
 10
25.962047
 20
-6.912132
 30
0.0
  0
SPLINE
  5
1b2
100
AcDbEntity
  8
0
 62
7
100
AcDbSpline
 70
8
 71
3
 72
8
 73
4
 74
0
 40
0
 40
0
 40
0
 40
0
 40
1
 40
1
 40
1
 40
1
 10
25.962047
 20
-6.912132
 30
0.0
 10
26.018309
 20
-6.855869
 30
0.0
 10
26.049914
 20
-6.779560
 30
0.0
 10
26.049911
 20
-6.699993
 30
0.0
  0
LWPOLYLINE
  5
1b3
100
AcDbEntity
  8
0
 62
7
100
AcDbPolyline
 90
2
 70
0
 10
12.349915
 20
-7.000004
 30
0.0
 10
25.749912
 20
-7.000004
 30
0.0
  0
SPLINE
  5
1b4
100
AcDbEntity
  8
0
 62
7
100
AcDbSpline
 70
8
 71
3
 72
8
 73
4
 74
0
 40
0
 40
0
 40
0
 40
0
 40
1
 40
1
 40
1
 40
1
 10
26.049911
 20
6.699985
 30
0.0
 10
26.049914
 20
6.779552
 30
0.0
 10
26.018309
 20
6.855861
 30
0.0
 10
25.962047
 20
6.912124
 30
0.0
  0
SPLINE
  5
1b5
100
AcDbEntity
  8
0
 62
7
100
AcDbSpline
 70
8
 71
3
 72
8
 73
4
 74
0
 40
0
 40
0
 40
0
 40
0
 40
1
 40
1
 40
1
 40
1
 10
25.962047
 20
6.912124
 30
0.0
 10
25.905786
 20
6.968387
 30
0.0
 10
25.829478
 20
6.999996
 30
0.0
 10
25.749912
 20
6.999996
 30
0.0
  0
LWPOLYLINE
  5
1b6
100
AcDbEntity
  8
0
 62
7
100
AcDbPolyline
 90
2
 70
0
 10
26.049911
 20
-6.699993
 30
0.0
 10
26.049911
 20
6.699985
 30
0.0
  0
SPLINE
  5
1b7
100
AcDbEntity
  8
0
 62
7
100
AcDbSpline
 70
8
 71
3
 72
8
 73
4
 74
0
 40
0
 40
0
 40
0
 40
0
 40
1
 40
1
 40
1
 40
1
 10
12.349915
 20
6.999996
 30
0.0
 10
12.270348
 20
6.999996
 30
0.0
 10
12.194041
 20
6.968387
 30
0.0
 10
12.137779
 20
6.912124
 30
0.0
  0
SPLINE
  5
1b8
100
AcDbEntity
  8
0
 62
7
100
AcDbSpline
 70
8
 71
3
 72
8
 73
4
 74
0
 40
0
 40
0
 40
0
 40
0
 40
1
 40
1
 40
1
 40
1
 10
12.137779
 20
6.912124
 30
0.0
 10
12.081518
 20
6.855861
 30
0.0
 10
12.049912
 20
6.779552
 30
0.0
 10
12.049915
 20
6.699985
 30
0.0
  0
LWPOLYLINE
  5
1b9
100
AcDbEntity
  8
0
 62
7
100
AcDbPolyline
 90
2
 70
0
 10
25.749912
 20
6.999996
 30
0.0
 10
12.349915
 20
6.999996
 30
0.0
  0
LWPOLYLINE
  5
1ba
100
AcDbEntity
  8
0
 62
7
100
AcDbPolyline
 90
1
 70
1
 10
12.049915
 20
6.699985
 30
0.0
  0
SPLINE
  5
1bb
100
AcDbEntity
  8
0
 62
7
100
AcDbSpline
 70
8
 71
3
 72
8
 73
4
 74
0
 40
0
 40
0
 40
0
 40
0
 40
1
 40
1
 40
1
 40
1
 10
12.049915
 20
31.399996
 30
0.0
 10
12.049912
 20
31.320430
 30
0.0
 10
12.081518
 20
31.244120
 30
0.0
 10
12.137779
 20
31.187857
 30
0.0
  0
SPLINE
  5
1bc
100
AcDbEntity
  8
0
 62
7
100
AcDbSpline
 70
8
 71
3
 72
8
 73
4
 74
0
 40
0
 40
0
 40
0
 40
0
 40
1
 40
1
 40
1
 40
1
 10
12.137779
 20
31.187857
 30
0.0
 10
12.194041
 20
31.131594
 30
0.0
 10
12.270349
 20
31.099985
 30
0.0
 10
12.349915
 20
31.099985
 30
0.0
  0
LWPOLYLINE
  5
1bd
100
AcDbEntity
  8
0
 62
7
100
AcDbPolyline
 90
2
 70
0
 10
12.049915
 20
44.799974
 30
0.0
 10
12.049915
 20
31.399996
 30
0.0
  0
SPLINE
  5
1be
100
AcDbEntity
  8
0
 62
7
100
AcDbSpline
 70
8
 71
3
 72
8
 73
4
 74
0
 40
0
 40
0
 40
0
 40
0
 40
1
 40
1
 40
1
 40
1
 10
25.749912
 20
31.099985
 30
0.0
 10
25.829479
 20
31.099985
 30
0.0
 10
25.905787
 20
31.131594
 30
0.0
 10
25.962048
 20
31.187857
 30
0.0
  0
SPLINE
  5
1bf
100
AcDbEntity
  8
0
 62
7
100
AcDbSpline
 70
8
 71
3
 72
8
 73
4
 74
0
 40
0
 40
0
 40
0
 40
0
 40
1
 40
1
 40
1
 40
1
 10
25.962048
 20
31.187857
 30
0.0
 10
26.018309
 20
31.244120
 30
0.0
 10
26.049915
 20
31.320429
 30
0.0
 10
26.049912
 20
31.399996
 30
0.0
  0
LWPOLYLINE
  5
1c0
100
AcDbEntity
  8
0
 62
7
100
AcDbPolyline
 90
2
 70
0
 10
12.349915
 20
31.099985
 30
0.0
 10
25.749912
 20
31.099985
 30
0.0
  0
SPLINE
  5
1c1
100
AcDbEntity
  8
0
 62
7
100
AcDbSpline
 70
8
 71
3
 72
8
 73
4
 74
0
 40
0
 40
0
 40
0
 40
0
 40
1
 40
1
 40
1
 40
1
 10
26.049912
 20
44.799974
 30
0.0
 10
26.049915
 20
44.879541
 30
0.0
 10
26.018309
 20
44.955850
 30
0.0
 10
25.962048
 20
45.012114
 30
0.0
  0
SPLINE
  5
1c2
100
AcDbEntity
  8
0
 62
7
100
AcDbSpline
 70
8
 71
3
 72
8
 73
4
 74
0
 40
0
 40
0
 40
0
 40
0
 40
1
 40
1
 40
1
 40
1
 10
25.962048
 20
45.012114
 30
0.0
 10
25.905787
 20
45.068377
 30
0.0
 10
25.829479
 20
45.099985
 30
0.0
 10
25.749912
 20
45.099985
 30
0.0
  0
LWPOLYLINE
  5
1c3
100
AcDbEntity
  8
0
 62
7
100
AcDbPolyline
 90
2
 70
0
 10
26.049912
 20
31.399996
 30
0.0
 10
26.049912
 20
44.799974
 30
0.0
  0
SPLINE
  5
1c4
100
AcDbEntity
  8
0
 62
7
100
AcDbSpline
 70
8
 71
3
 72
8
 73
4
 74
0
 40
0
 40
0
 40
0
 40
0
 40
1
 40
1
 40
1
 40
1
 10
12.349915
 20
45.099985
 30
0.0
 10
12.270349
 20
45.099985
 30
0.0
 10
12.194041
 20
45.068377
 30
0.0
 10
12.137779
 20
45.012114
 30
0.0
  0
SPLINE
  5
1c5
100
AcDbEntity
  8
0
 62
7
100
AcDbSpline
 70
8
 71
3
 72
8
 73
4
 74
0
 40
0
 40
0
 40
0
 40
0
 40
1
 40
1
 40
1
 40
1
 10
12.137779
 20
45.012114
 30
0.0
 10
12.081518
 20
44.955850
 30
0.0
 10
12.049912
 20
44.879541
 30
0.0
 10
12.049915
 20
44.799974
 30
0.0
  0
LWPOLYLINE
  5
1c6
100
AcDbEntity
  8
0
 62
7
100
AcDbPolyline
 90
2
 70
0
 10
25.749912
 20
45.099985
 30
0.0
 10
12.349915
 20
45.099985
 30
0.0
  0
LWPOLYLINE
  5
1c7
100
AcDbEntity
  8
0
 62
7
100
AcDbPolyline
 90
1
 70
1
 10
12.049915
 20
44.799974
 30
0.0
  0
SPLINE
  5
1c8
100
AcDbEntity
  8
0
 62
7
100
AcDbSpline
 70
8
 71
3
 72
8
 73
4
 74
0
 40
0
 40
0
 40
0
 40
0
 40
1
 40
1
 40
1
 40
1
 10
-6.699998
 20
45.099987
 30
0.0
 10
-6.779563
 20
45.099987
 30
0.0
 10
-6.855869
 20
45.068380
 30
0.0
 10
-6.912130
 20
45.012119
 30
0.0
  0
SPLINE
  5
1c9
100
AcDbEntity
  8
0
 62
7
100
AcDbSpline
 70
8
 71
3
 72
8
 73
4
 74
0
 40
0
 40
0
 40
0
 40
0
 40
1
 40
1
 40
1
 40
1
 10
-6.912130
 20
45.012119
 30
0.0
 10
-6.968391
 20
44.955859
 30
0.0
 10
-6.999998
 20
44.879552
 30
0.0
 10
-6.999998
 20
44.799988
 30
0.0
  0
LWPOLYLINE
  5
1ca
100
AcDbEntity
  8
0
 62
7
100
AcDbPolyline
 90
2
 70
0
 10
6.699998
 20
45.099987
 30
0.0
 10
-6.699998
 20
45.099987
 30
0.0
  0
SPLINE
  5
1cb
100
AcDbEntity
  8
0
 62
7
100
AcDbSpline
 70
8
 71
3
 72
8
 73
4
 74
0
 40
0
 40
0
 40
0
 40
0
 40
1
 40
1
 40
1
 40
1
 10
-6.999998
 20
31.399991
 30
0.0
 10
-6.999998
 20
31.320426
 30
0.0
 10
-6.968391
 20
31.244120
 30
0.0
 10
-6.912130
 20
31.187859
 30
0.0
  0
SPLINE
  5
1cc
100
AcDbEntity
  8
0
 62
7
100
AcDbSpline
 70
8
 71
3
 72
8
 73
4
 74
0
 40
0
 40
0
 40
0
 40
0
 40
1
 40
1
 40
1
 40
1
 10
-6.912130
 20
31.187859
 30
0.0
 10
-6.855869
 20
31.131598
 30
0.0
 10
-6.779563
 20
31.099991
 30
0.0
 10
-6.699998
 20
31.099991
 30
0.0
  0
LWPOLYLINE
  5
1cd
100
AcDbEntity
  8
0
 62
7
100
AcDbPolyline
 90
2
 70
0
 10
-6.999998
 20
44.799988
 30
0.0
 10
-6.999998
 20
31.399991
 30
0.0
  0
SPLINE
  5
1ce
100
AcDbEntity
  8
0
 62
7
100
AcDbSpline
 70
8
 71
3
 72
8
 73
4
 74
0
 40
0
 40
0
 40
0
 40
0
 40
1
 40
1
 40
1
 40
1
 10
6.699998
 20
31.099991
 30
0.0
 10
6.779563
 20
31.099991
 30
0.0
 10
6.855869
 20
31.131598
 30
0.0
 10
6.912130
 20
31.187859
 30
0.0
  0
SPLINE
  5
1cf
100
AcDbEntity
  8
0
 62
7
100
AcDbSpline
 70
8
 71
3
 72
8
 73
4
 74
0
 40
0
 40
0
 40
0
 40
0
 40
1
 40
1
 40
1
 40
1
 10
6.912130
 20
31.187859
 30
0.0
 10
6.968391
 20
31.244120
 30
0.0
 10
6.999998
 20
31.320426
 30
0.0
 10
6.999998
 20
31.399991
 30
0.0
  0
LWPOLYLINE
  5
1d0
100
AcDbEntity
  8
0
 62
7
100
AcDbPolyline
 90
2
 70
0
 10
-6.699998
 20
31.099991
 30
0.0
 10
6.699998
 20
31.099991
 30
0.0
  0
SPLINE
  5
1d1
100
AcDbEntity
  8
0
 62
7
100
AcDbSpline
 70
8
 71
3
 72
8
 73
4
 74
0
 40
0
 40
0
 40
0
 40
0
 40
1
 40
1
 40
1
 40
1
 10
6.999998
 20
44.799988
 30
0.0
 10
6.999998
 20
44.879552
 30
0.0
 10
6.968391
 20
44.955859
 30
0.0
 10
6.912130
 20
45.012119
 30
0.0
  0
SPLINE
  5
1d2
100
AcDbEntity
  8
0
 62
7
100
AcDbSpline
 70
8
 71
3
 72
8
 73
4
 74
0
 40
0
 40
0
 40
0
 40
0
 40
1
 40
1
 40
1
 40
1
 10
6.912130
 20
45.012119
 30
0.0
 10
6.855869
 20
45.068380
 30
0.0
 10
6.779563
 20
45.099987
 30
0.0
 10
6.699998
 20
45.099987
 30
0.0
  0
LWPOLYLINE
  5
1d3
100
AcDbEntity
  8
0
 62
7
100
AcDbPolyline
 90
2
 70
0
 10
6.999998
 20
31.399991
 30
0.0
 10
6.999998
 20
44.799988
 30
0.0
  0
LWPOLYLINE
  5
1d4
100
AcDbEntity
  8
0
 62
7
100
AcDbPolyline
 90
1
 70
1
 10
6.699998
 20
45.099987
 30
0.0
  0
SPLINE
  5
1d5
100
AcDbEntity
  8
0
 62
7
100
AcDbSpline
 70
8
 71
3
 72
8
 73
4
 74
0
 40
0
 40
0
 40
0
 40
0
 40
1
 40
1
 40
1
 40
1
 10
-50.449986
 20
42.599988
 30
0.0
 10
-50.370421
 20
42.599988
 30
0.0
 10
-50.294115
 20
42.631595
 30
0.0
 10
-50.237854
 20
42.687856
 30
0.0
  0
SPLINE
  5
1d6
100
AcDbEntity
  8
0
 62
7
100
AcDbSpline
 70
8
 71
3
 72
8
 73
4
 74
0
 40
0
 40
0
 40
0
 40
0
 40
1
 40
1
 40
1
 40
1
 10
-50.237854
 20
42.687856
 30
0.0
 10
-50.181593
 20
42.744117
 30
0.0
 10
-50.149986
 20
42.820423
 30
0.0
 10
-50.149986
 20
42.899988
 30
0.0
  0
LWPOLYLINE
  5
1d7
100
AcDbEntity
  8
0
 62
7
100
AcDbPolyline
 90
2
 70
0
 10
-63.849982
 20
42.599988
 30
0.0
 10
-50.449986
 20
42.599988
 30
0.0
  0
SPLINE
  5
1d8
100
AcDbEntity
  8
0
 62
7
100
AcDbSpline
 70
8
 71
3
 72
8
 73
4
 74
0
 40
0
 40
0
 40
0
 40
0
 40
1
 40
1
 40
1
 40
1
 10
-50.149986
 20
56.299984
 30
0.0
 10
-50.149986
 20
56.379549
 30
0.0
 10
-50.181593
 20
56.455855
 30
0.0
 10
-50.237854
 20
56.512116
 30
0.0
  0
SPLINE
  5
1d9
100
AcDbEntity
  8
0
 62
7
100
AcDbSpline
 70
8
 71
3
 72
8
 73
4
 74
0
 40
0
 40
0
 40
0
 40
0
 40
1
 40
1
 40
1
 40
1
 10
-50.237854
 20
56.512116
 30
0.0
 10
-50.294115
 20
56.568377
 30
0.0
 10
-50.370421
 20
56.599984
 30
0.0
 10
-50.449986
 20
56.599984
 30
0.0
  0
LWPOLYLINE
  5
1da
100
AcDbEntity
  8
0
 62
7
100
AcDbPolyline
 90
2
 70
0
 10
-50.149986
 20
42.899988
 30
0.0
 10
-50.149986
 20
56.299984
 30
0.0
  0
SPLINE
  5
1db
100
AcDbEntity
  8
0
 62
7
100
AcDbSpline
 70
8
 71
3
 72
8
 73
4
 74
0
 40
0
 40
0
 40
0
 40
0
 40
1
 40
1
 40
1
 40
1
 10
-63.849982
 20
56.599984
 30
0.0
 10
-63.929547
 20
56.599984
 30
0.0
 10
-64.005853
 20
56.568377
 30
0.0
 10
-64.062114
 20
56.512116
 30
0.0
  0
SPLINE
  5
1dc
100
AcDbEntity
  8
0
 62
7
100
AcDbSpline
 70
8
 71
3
 72
8
 73
4
 74
0
 40
0
 40
0
 40
0
 40
0
 40
1
 40
1
 40
1
 40
1
 10
-64.062114
 20
56.512116
 30
0.0
 10
-64.118375
 20
56.455855
 30
0.0
 10
-64.149982
 20
56.379549
 30
0.0
 10
-64.149982
 20
56.299984
 30
0.0
  0
LWPOLYLINE
  5
1dd
100
AcDbEntity
  8
0
 62
7
100
AcDbPolyline
 90
2
 70
0
 10
-50.449986
 20
56.599984
 30
0.0
 10
-63.849982
 20
56.599984
 30
0.0
  0
SPLINE
  5
1de
100
AcDbEntity
  8
0
 62
7
100
AcDbSpline
 70
8
 71
3
 72
8
 73
4
 74
0
 40
0
 40
0
 40
0
 40
0
 40
1
 40
1
 40
1
 40
1
 10
-64.149982
 20
42.899988
 30
0.0
 10
-64.149982
 20
42.820423
 30
0.0
 10
-64.118375
 20
42.744117
 30
0.0
 10
-64.062114
 20
42.687856
 30
0.0
  0
SPLINE
  5
1df
100
AcDbEntity
  8
0
 62
7
100
AcDbSpline
 70
8
 71
3
 72
8
 73
4
 74
0
 40
0
 40
0
 40
0
 40
0
 40
1
 40
1
 40
1
 40
1
 10
-64.062114
 20
42.687856
 30
0.0
 10
-64.005853
 20
42.631595
 30
0.0
 10
-63.929547
 20
42.599988
 30
0.0
 10
-63.849982
 20
42.599988
 30
0.0
  0
LWPOLYLINE
  5
1e0
100
AcDbEntity
  8
0
 62
7
100
AcDbPolyline
 90
2
 70
0
 10
-64.149982
 20
56.299984
 30
0.0
 10
-64.149982
 20
42.899988
 30
0.0
  0
LWPOLYLINE
  5
1e1
100
AcDbEntity
  8
0
 62
7
100
AcDbPolyline
 90
1
 70
1
 10
-63.849982
 20
42.599988
 30
0.0
  0
SPLINE
  5
1e2
100
AcDbEntity
  8
0
 62
7
100
AcDbSpline
 70
8
 71
3
 72
8
 73
4
 74
0
 40
0
 40
0
 40
0
 40
0
 40
1
 40
1
 40
1
 40
1
 10
-50.449986
 20
23.549993
 30
0.0
 10
-50.370421
 20
23.549993
 30
0.0
 10
-50.294115
 20
23.581600
 30
0.0
 10
-50.237854
 20
23.637861
 30
0.0
  0
SPLINE
  5
1e3
100
AcDbEntity
  8
0
 62
7
100
AcDbSpline
 70
8
 71
3
 72
8
 73
4
 74
0
 40
0
 40
0
 40
0
 40
0
 40
1
 40
1
 40
1
 40
1
 10
-50.237854
 20
23.637861
 30
0.0
 10
-50.181593
 20
23.694122
 30
0.0
 10
-50.149986
 20
23.770428
 30
0.0
 10
-50.149986
 20
23.849993
 30
0.0
  0
LWPOLYLINE
  5
1e4
100
AcDbEntity
  8
0
 62
7
100
AcDbPolyline
 90
2
 70
0
 10
-63.849982
 20
23.549993
 30
0.0
 10
-50.449986
 20
23.549993
 30
0.0
  0
SPLINE
  5
1e5
100
AcDbEntity
  8
0
 62
7
100
AcDbSpline
 70
8
 71
3
 72
8
 73
4
 74
0
 40
0
 40
0
 40
0
 40
0
 40
1
 40
1
 40
1
 40
1
 10
-50.149986
 20
37.249990
 30
0.0
 10
-50.149986
 20
37.329555
 30
0.0
 10
-50.181593
 20
37.405861
 30
0.0
 10
-50.237854
 20
37.462122
 30
0.0
  0
SPLINE
  5
1e6
100
AcDbEntity
  8
0
 62
7
100
AcDbSpline
 70
8
 71
3
 72
8
 73
4
 74
0
 40
0
 40
0
 40
0
 40
0
 40
1
 40
1
 40
1
 40
1
 10
-50.237854
 20
37.462122
 30
0.0
 10
-50.294115
 20
37.518382
 30
0.0
 10
-50.370421
 20
37.549990
 30
0.0
 10
-50.449986
 20
37.549990
 30
0.0
  0
LWPOLYLINE
  5
1e7
100
AcDbEntity
  8
0
 62
7
100
AcDbPolyline
 90
2
 70
0
 10
-50.149986
 20
23.849993
 30
0.0
 10
-50.149986
 20
37.249990
 30
0.0
  0
SPLINE
  5
1e8
100
AcDbEntity
  8
0
 62
7
100
AcDbSpline
 70
8
 71
3
 72
8
 73
4
 74
0
 40
0
 40
0
 40
0
 40
0
 40
1
 40
1
 40
1
 40
1
 10
-63.849982
 20
37.549990
 30
0.0
 10
-63.929547
 20
37.549990
 30
0.0
 10
-64.005853
 20
37.518382
 30
0.0
 10
-64.062114
 20
37.462122
 30
0.0
  0
SPLINE
  5
1e9
100
AcDbEntity
  8
0
 62
7
100
AcDbSpline
 70
8
 71
3
 72
8
 73
4
 74
0
 40
0
 40
0
 40
0
 40
0
 40
1
 40
1
 40
1
 40
1
 10
-64.062114
 20
37.462122
 30
0.0
 10
-64.118375
 20
37.405861
 30
0.0
 10
-64.149982
 20
37.329555
 30
0.0
 10
-64.149982
 20
37.249990
 30
0.0
  0
LWPOLYLINE
  5
1ea
100
AcDbEntity
  8
0
 62
7
100
AcDbPolyline
 90
2
 70
0
 10
-50.449986
 20
37.549990
 30
0.0
 10
-63.849982
 20
37.549990
 30
0.0
  0
SPLINE
  5
1eb
100
AcDbEntity
  8
0
 62
7
100
AcDbSpline
 70
8
 71
3
 72
8
 73
4
 74
0
 40
0
 40
0
 40
0
 40
0
 40
1
 40
1
 40
1
 40
1
 10
-64.149982
 20
23.849993
 30
0.0
 10
-64.149982
 20
23.770428
 30
0.0
 10
-64.118375
 20
23.694122
 30
0.0
 10
-64.062114
 20
23.637861
 30
0.0
  0
SPLINE
  5
1ec
100
AcDbEntity
  8
0
 62
7
100
AcDbSpline
 70
8
 71
3
 72
8
 73
4
 74
0
 40
0
 40
0
 40
0
 40
0
 40
1
 40
1
 40
1
 40
1
 10
-64.062114
 20
23.637861
 30
0.0
 10
-64.005853
 20
23.581600
 30
0.0
 10
-63.929547
 20
23.549993
 30
0.0
 10
-63.849982
 20
23.549993
 30
0.0
  0
LWPOLYLINE
  5
1ed
100
AcDbEntity
  8
0
 62
7
100
AcDbPolyline
 90
2
 70
0
 10
-64.149982
 20
37.249990
 30
0.0
 10
-64.149982
 20
23.849993
 30
0.0
  0
LWPOLYLINE
  5
1ee
100
AcDbEntity
  8
0
 62
7
100
AcDbPolyline
 90
1
 70
1
 10
-63.849982
 20
23.549993
 30
0.0
  0
SPLINE
  5
1ef
100
AcDbEntity
  8
0
 62
7
100
AcDbSpline
 70
8
 71
3
 72
8
 73
4
 74
0
 40
0
 40
0
 40
0
 40
0
 40
1
 40
1
 40
1
 40
1
 10
-31.099991
 20
43.749988
 30
0.0
 10
-31.099991
 20
43.829553
 30
0.0
 10
-31.131598
 20
43.905859
 30
0.0
 10
-31.187859
 20
43.962120
 30
0.0
  0
SPLINE
  5
1f0
100
AcDbEntity
  8
0
 62
7
100
AcDbSpline
 70
8
 71
3
 72
8
 73
4
 74
0
 40
0
 40
0
 40
0
 40
0
 40
1
 40
1
 40
1
 40
1
 10
-31.187859
 20
43.962120
 30
0.0
 10
-31.244120
 20
44.018381
 30
0.0
 10
-31.320426
 20
44.049988
 30
0.0
 10
-31.399991
 20
44.049988
 30
0.0
  0
LWPOLYLINE
  5
1f1
100
AcDbEntity
  8
0
 62
7
100
AcDbPolyline
 90
2
 70
0
 10
-31.099991
 20
30.349991
 30
0.0
 10
-31.099991
 20
43.749988
 30
0.0
  0
SPLINE
  5
1f2
100
AcDbEntity
  8
0
 62
7
100
AcDbSpline
 70
8
 71
3
 72
8
 73
4
 74
0
 40
0
 40
0
 40
0
 40
0
 40
1
 40
1
 40
1
 40
1
 10
-44.799988
 20
44.049988
 30
0.0
 10
-44.879552
 20
44.049988
 30
0.0
 10
-44.955859
 20
44.018381
 30
0.0
 10
-45.012119
 20
43.962120
 30
0.0
  0
SPLINE
  5
1f3
100
AcDbEntity
  8
0
 62
7
100
AcDbSpline
 70
8
 71
3
 72
8
 73
4
 74
0
 40
0
 40
0
 40
0
 40
0
 40
1
 40
1
 40
1
 40
1
 10
-45.012119
 20
43.962120
 30
0.0
 10
-45.068380
 20
43.905859
 30
0.0
 10
-45.099987
 20
43.829553
 30
0.0
 10
-45.099987
 20
43.749988
 30
0.0
  0
LWPOLYLINE
  5
1f4
100
AcDbEntity
  8
0
 62
7
100
AcDbPolyline
 90
2
 70
0
 10
-31.399991
 20
44.049988
 30
0.0
 10
-44.799988
 20
44.049988
 30
0.0
  0
SPLINE
  5
1f5
100
AcDbEntity
  8
0
 62
7
100
AcDbSpline
 70
8
 71
3
 72
8
 73
4
 74
0
 40
0
 40
0
 40
0
 40
0
 40
1
 40
1
 40
1
 40
1
 10
-45.099987
 20
30.349991
 30
0.0
 10
-45.099987
 20
30.270426
 30
0.0
 10
-45.068380
 20
30.194120
 30
0.0
 10
-45.012119
 20
30.137859
 30
0.0
  0
SPLINE
  5
1f6
100
AcDbEntity
  8
0
 62
7
100
AcDbSpline
 70
8
 71
3
 72
8
 73
4
 74
0
 40
0
 40
0
 40
0
 40
0
 40
1
 40
1
 40
1
 40
1
 10
-45.012119
 20
30.137859
 30
0.0
 10
-44.955859
 20
30.081599
 30
0.0
 10
-44.879552
 20
30.049992
 30
0.0
 10
-44.799988
 20
30.049992
 30
0.0
  0
LWPOLYLINE
  5
1f7
100
AcDbEntity
  8
0
 62
7
100
AcDbPolyline
 90
2
 70
0
 10
-45.099987
 20
43.749988
 30
0.0
 10
-45.099987
 20
30.349991
 30
0.0
  0
SPLINE
  5
1f8
100
AcDbEntity
  8
0
 62
7
100
AcDbSpline
 70
8
 71
3
 72
8
 73
4
 74
0
 40
0
 40
0
 40
0
 40
0
 40
1
 40
1
 40
1
 40
1
 10
-31.399991
 20
30.049992
 30
0.0
 10
-31.320426
 20
30.049992
 30
0.0
 10
-31.244120
 20
30.081599
 30
0.0
 10
-31.187859
 20
30.137859
 30
0.0
  0
SPLINE
  5
1f9
100
AcDbEntity
  8
0
 62
7
100
AcDbSpline
 70
8
 71
3
 72
8
 73
4
 74
0
 40
0
 40
0
 40
0
 40
0
 40
1
 40
1
 40
1
 40
1
 10
-31.187859
 20
30.137859
 30
0.0
 10
-31.131598
 20
30.194120
 30
0.0
 10
-31.099991
 20
30.270426
 30
0.0
 10
-31.099991
 20
30.349991
 30
0.0
  0
LWPOLYLINE
  5
1fa
100
AcDbEntity
  8
0
 62
7
100
AcDbPolyline
 90
2
 70
0
 10
-44.799988
 20
30.049992
 30
0.0
 10
-31.399991
 20
30.049992
 30
0.0
  0
LWPOLYLINE
  5
1fb
100
AcDbEntity
  8
0
 62
7
100
AcDbPolyline
 90
1
 70
1
 10
-31.099991
 20
30.349991
 30
0.0
  0
SPLINE
  5
1fc
100
AcDbEntity
  8
0
 62
7
100
AcDbSpline
 70
8
 71
3
 72
8
 73
4
 74
0
 40
0
 40
0
 40
0
 40
0
 40
1
 40
1
 40
1
 40
1
 10
-83.199977
 20
21.349994
 30
0.0
 10
-83.199977
 20
21.270429
 30
0.0
 10
-83.168370
 20
21.194123
 30
0.0
 10
-83.112109
 20
21.137862
 30
0.0
  0
SPLINE
  5
1fd
100
AcDbEntity
  8
0
 62
7
100
AcDbSpline
 70
8
 71
3
 72
8
 73
4
 74
0
 40
0
 40
0
 40
0
 40
0
 40
1
 40
1
 40
1
 40
1
 10
-83.112109
 20
21.137862
 30
0.0
 10
-83.055848
 20
21.081601
 30
0.0
 10
-82.979542
 20
21.049994
 30
0.0
 10
-82.899977
 20
21.049994
 30
0.0
  0
LWPOLYLINE
  5
1fe
100
AcDbEntity
  8
0
 62
7
100
AcDbPolyline
 90
2
 70
0
 10
-83.199977
 20
34.749990
 30
0.0
 10
-83.199977
 20
21.349994
 30
0.0
  0
SPLINE
  5
1ff
100
AcDbEntity
  8
0
 62
7
100
AcDbSpline
 70
8
 71
3
 72
8
 73
4
 74
0
 40
0
 40
0
 40
0
 40
0
 40
1
 40
1
 40
1
 40
1
 10
-69.499980
 20
21.049994
 30
0.0
 10
-69.420415
 20
21.049994
 30
0.0
 10
-69.344109
 20
21.081601
 30
0.0
 10
-69.287848
 20
21.137862
 30
0.0
  0
SPLINE
  5
200
100
AcDbEntity
  8
0
 62
7
100
AcDbSpline
 70
8
 71
3
 72
8
 73
4
 74
0
 40
0
 40
0
 40
0
 40
0
 40
1
 40
1
 40
1
 40
1
 10
-69.287848
 20
21.137862
 30
0.0
 10
-69.231588
 20
21.194123
 30
0.0
 10
-69.199981
 20
21.270429
 30
0.0
 10
-69.199981
 20
21.349994
 30
0.0
  0
LWPOLYLINE
  5
201
100
AcDbEntity
  8
0
 62
7
100
AcDbPolyline
 90
2
 70
0
 10
-82.899977
 20
21.049994
 30
0.0
 10
-69.499980
 20
21.049994
 30
0.0
  0
SPLINE
  5
202
100
AcDbEntity
  8
0
 62
7
100
AcDbSpline
 70
8
 71
3
 72
8
 73
4
 74
0
 40
0
 40
0
 40
0
 40
0
 40
1
 40
1
 40
1
 40
1
 10
-69.199981
 20
34.749990
 30
0.0
 10
-69.199981
 20
34.829555
 30
0.0
 10
-69.231588
 20
34.905861
 30
0.0
 10
-69.287848
 20
34.962122
 30
0.0
  0
SPLINE
  5
203
100
AcDbEntity
  8
0
 62
7
100
AcDbSpline
 70
8
 71
3
 72
8
 73
4
 74
0
 40
0
 40
0
 40
0
 40
0
 40
1
 40
1
 40
1
 40
1
 10
-69.287848
 20
34.962122
 30
0.0
 10
-69.344109
 20
35.018383
 30
0.0
 10
-69.420415
 20
35.049990
 30
0.0
 10
-69.499980
 20
35.049990
 30
0.0
  0
LWPOLYLINE
  5
204
100
AcDbEntity
  8
0
 62
7
100
AcDbPolyline
 90
2
 70
0
 10
-69.199981
 20
21.349994
 30
0.0
 10
-69.199981
 20
34.749990
 30
0.0
  0
SPLINE
  5
205
100
AcDbEntity
  8
0
 62
7
100
AcDbSpline
 70
8
 71
3
 72
8
 73
4
 74
0
 40
0
 40
0
 40
0
 40
0
 40
1
 40
1
 40
1
 40
1
 10
-82.899977
 20
35.049990
 30
0.0
 10
-82.979542
 20
35.049990
 30
0.0
 10
-83.055848
 20
35.018383
 30
0.0
 10
-83.112109
 20
34.962122
 30
0.0
  0
SPLINE
  5
206
100
AcDbEntity
  8
0
 62
7
100
AcDbSpline
 70
8
 71
3
 72
8
 73
4
 74
0
 40
0
 40
0
 40
0
 40
0
 40
1
 40
1
 40
1
 40
1
 10
-83.112109
 20
34.962122
 30
0.0
 10
-83.168370
 20
34.905861
 30
0.0
 10
-83.199977
 20
34.829555
 30
0.0
 10
-83.199977
 20
34.749990
 30
0.0
  0
LWPOLYLINE
  5
207
100
AcDbEntity
  8
0
 62
7
100
AcDbPolyline
 90
2
 70
0
 10
-69.499980
 20
35.049990
 30
0.0
 10
-82.899977
 20
35.049990
 30
0.0
  0
LWPOLYLINE
  5
208
100
AcDbEntity
  8
0
 62
7
100
AcDbPolyline
 90
1
 70
1
 10
-83.199977
 20
34.749990
 30
0.0
  0
SPLINE
  5
209
100
AcDbEntity
  8
0
 62
7
100
AcDbSpline
 70
8
 71
3
 72
8
 73
4
 74
0
 40
0
 40
0
 40
0
 40
0
 40
1
 40
1
 40
1
 40
1
 10
-61.549176
 20
-2.076199
 30
0.0
 10
-61.569769
 20
-1.999345
 30
0.0
 10
-61.620048
 20
-1.933819
 30
0.0
 10
-61.688953
 20
-1.894037
 30
0.0
  0
SPLINE
  5
20a
100
AcDbEntity
  8
0
 62
7
100
AcDbSpline
 70
8
 71
3
 72
8
 73
4
 74
0
 40
0
 40
0
 40
0
 40
0
 40
1
 40
1
 40
1
 40
1
 10
-61.688953
 20
-1.894037
 30
0.0
 10
-61.757859
 20
-1.854254
 30
0.0
 10
-61.839745
 20
-1.843474
 30
0.0
 10
-61.916599
 20
-1.864067
 30
0.0
  0
LWPOLYLINE
  5
20b
100
AcDbEntity
  8
0
 62
7
100
AcDbPolyline
 90
2
 70
0
 10
-58.081002
 20
-15.019601
 30
0.0
 10
-61.549176
 20
-2.076199
 30
0.0
  0
SPLINE
  5
20c
100
AcDbEntity
  8
0
 62
7
100
AcDbSpline
 70
8
 71
3
 72
8
 73
4
 74
0
 40
0
 40
0
 40
0
 40
0
 40
1
 40
1
 40
1
 40
1
 10
-74.860001
 20
-5.332241
 30
0.0
 10
-74.936855
 20
-5.352834
 30
0.0
 10
-75.002381
 20
-5.403114
 30
0.0
 10
-75.042163
 20
-5.472019
 30
0.0
  0
SPLINE
  5
20d
100
AcDbEntity
  8
0
 62
7
100
AcDbSpline
 70
8
 71
3
 72
8
 73
4
 74
0
 40
0
 40
0
 40
0
 40
0
 40
1
 40
1
 40
1
 40
1
 10
-75.042163
 20
-5.472019
 30
0.0
 10
-75.081946
 20
-5.540924
 30
0.0
 10
-75.092726
 20
-5.622811
 30
0.0
 10
-75.072133
 20
-5.699664
 30
0.0
  0
LWPOLYLINE
  5
20e
100
AcDbEntity
  8
0
 62
7
100
AcDbPolyline
 90
2
 70
0
 10
-61.916599
 20
-1.864067
 30
0.0
 10
-74.860001
 20
-5.332241
 30
0.0
  0
SPLINE
  5
20f
100
AcDbEntity
  8
0
 62
7
100
AcDbSpline
 70
8
 71
3
 72
8
 73
4
 74
0
 40
0
 40
0
 40
0
 40
0
 40
1
 40
1
 40
1
 40
1
 10
-71.603959
 20
-18.643067
 30
0.0
 10
-71.583367
 20
-18.719921
 30
0.0
 10
-71.533087
 20
-18.785446
 30
0.0
 10
-71.464182
 20
-18.825229
 30
0.0
  0
SPLINE
  5
210
100
AcDbEntity
  8
0
 62
7
100
AcDbSpline
 70
8
 71
3
 72
8
 73
4
 74
0
 40
0
 40
0
 40
0
 40
0
 40
1
 40
1
 40
1
 40
1
 10
-71.464182
 20
-18.825229
 30
0.0
 10
-71.395276
 20
-18.865011
 30
0.0
 10
-71.313390
 20
-18.875792
 30
0.0
 10
-71.236536
 20
-18.855199
 30
0.0
  0
LWPOLYLINE
  5
211
100
AcDbEntity
  8
0
 62
7
100
AcDbPolyline
 90
2
 70
0
 10
-75.072133
 20
-5.699664
 30
0.0
 10
-71.603959
 20
-18.643067
 30
0.0
  0
SPLINE
  5
212
100
AcDbEntity
  8
0
 62
7
100
AcDbSpline
 70
8
 71
3
 72
8
 73
4
 74
0
 40
0
 40
0
 40
0
 40
0
 40
1
 40
1
 40
1
 40
1
 10
-58.293133
 20
-15.387025
 30
0.0
 10
-58.133094
 20
-15.344142
 30
0.0
 10
-58.038119
 20
-15.179641
 30
0.0
 10
-58.081002
 20
-15.019601
 30
0.0
  0
LWPOLYLINE
  5
213
100
AcDbEntity
  8
0
 62
7
100
AcDbPolyline
 90
2
 70
0
 10
-71.236536
 20
-18.855199
 30
0.0
 10
-58.293133
 20
-15.387025
 30
0.0
  0
LWPOLYLINE
  5
214
100
AcDbEntity
  8
0
 62
7
100
AcDbPolyline
 90
1
 70
1
 10
-58.081002
 20
-15.019601
 30
0.0
  0
SPLINE
  5
215
100
AcDbEntity
  8
0
 62
7
100
AcDbSpline
 70
8
 71
3
 72
8
 73
4
 74
0
 40
0
 40
0
 40
0
 40
0
 40
1
 40
1
 40
1
 40
1
 10
-103.023488
 20
-21.863392
 30
0.0
 10
-103.139911
 20
-21.745511
 30
0.0
 10
-103.329852
 20
-21.744326
 30
0.0
 10
-103.447736
 20
-21.860746
 30
0.0
  0
LWPOLYLINE
  5
216
100
AcDbEntity
  8
0
 62
7
100
AcDbPolyline
 90
2
 70
0
 10
-93.606935
 20
-31.396935
 30
0.0
 10
-103.023488
 20
-21.863392
 30
0.0
  0
SPLINE
  5
217
100
AcDbEntity
  8
0
 62
7
100
AcDbSpline
 70
8
 71
3
 72
8
 73
4
 74
0
 40
0
 40
0
 40
0
 40
0
 40
1
 40
1
 40
1
 40
1
 10
-112.981290
 20
-31.277291
 30
0.0
 10
-113.037902
 20
-31.333200
 30
0.0
 10
-113.069985
 20
-31.409308
 30
0.0
 10
-113.070481
 20
-31.488872
 30
0.0
  0
SPLINE
  5
218
100
AcDbEntity
  8
0
 62
7
100
AcDbSpline
 70
8
 71
3
 72
8
 73
4
 74
0
 40
0
 40
0
 40
0
 40
0
 40
1
 40
1
 40
1
 40
1
 10
-113.070481
 20
-31.488872
 30
0.0
 10
-113.070977
 20
-31.568437
 30
0.0
 10
-113.039846
 20
-31.644939
 30
0.0
 10
-112.983936
 20
-31.701550
 30
0.0
  0
LWPOLYLINE
  5
219
100
AcDbEntity
  8
0
 62
7
100
AcDbPolyline
 90
2
 70
0
 10
-103.447736
 20
-21.860746
 30
0.0
 10
-112.981290
 20
-31.277291
 30
0.0
  0
SPLINE
  5
21a
100
AcDbEntity
  8
0
 62
7
100
AcDbSpline
 70
8
 71
3
 72
8
 73
4
 74
0
 40
0
 40
0
 40
0
 40
0
 40
1
 40
1
 40
1
 40
1
 10
-103.567384
 20
-41.235093
 30
0.0
 10
-103.450960
 20
-41.352974
 30
0.0
 10
-103.261020
 20
-41.354159
 30
0.0
 10
-103.143135
 20
-41.237739
 30
0.0
  0
LWPOLYLINE
  5
21b
100
AcDbEntity
  8
0
 62
7
100
AcDbPolyline
 90
2
 70
0
 10
-112.983936
 20
-31.701550
 30
0.0
 10
-103.567384
 20
-41.235093
 30
0.0
  0
SPLINE
  5
21c
100
AcDbEntity
  8
0
 62
7
100
AcDbSpline
 70
8
 71
3
 72
8
 73
4
 74
0
 40
0
 40
0
 40
0
 40
0
 40
1
 40
1
 40
1
 40
1
 10
-93.609578
 20
-31.821194
 30
0.0
 10
-93.552966
 20
-31.765285
 30
0.0
 10
-93.520883
 20
-31.689177
 30
0.0
 10
-93.520387
 20
-31.609613
 30
0.0
  0
SPLINE
  5
21d
100
AcDbEntity
  8
0
 62
7
100
AcDbSpline
 70
8
 71
3
 72
8
 73
4
 74
0
 40
0
 40
0
 40
0
 40
0
 40
1
 40
1
 40
1
 40
1
 10
-93.520387
 20
-31.609613
 30
0.0
 10
-93.519891
 20
-31.530048
 30
0.0
 10
-93.551022
 20
-31.453546
 30
0.0
 10
-93.606932
 20
-31.396935
 30
0.0
  0
LWPOLYLINE
  5
21e
100
AcDbEntity
  8
0
 62
7
100
AcDbPolyline
 90
2
 70
0
 10
-103.143135
 20
-41.237739
 30
0.0
 10
-93.609578
 20
-31.821194
 30
0.0
  0
LWPOLYLINE
  5
21f
100
AcDbEntity
  8
0
 62
7
100
AcDbPolyline
 90
1
 70
1
 10
-93.606932
 20
-31.396935
 30
0.0
  0
SPLINE
  5
220
100
AcDbEntity
  8
0
 62
7
100
AcDbSpline
 70
8
 71
3
 72
8
 73
4
 74
0
 40
0
 40
0
 40
0
 40
0
 40
1
 40
1
 40
1
 40
1
 10
-116.438653
 20
-8.389225
 30
0.0
 10
-116.555076
 20
-8.271344
 30
0.0
 10
-116.745017
 20
-8.270159
 30
0.0
 10
-116.862901
 20
-8.386579
 30
0.0
  0
LWPOLYLINE
  5
221
100
AcDbEntity
  8
0
 62
7
100
AcDbPolyline
 90
2
 70
0
 10
-107.022100
 20
-17.922768
 30
0.0
 10
-116.438653
 20
-8.389225
 30
0.0
  0
SPLINE
  5
222
100
AcDbEntity
  8
0
 62
7
100
AcDbSpline
 70
8
 71
3
 72
8
 73
4
 74
0
 40
0
 40
0
 40
0
 40
0
 40
1
 40
1
 40
1
 40
1
 10
-126.396455
 20
-17.803124
 30
0.0
 10
-126.453067
 20
-17.859033
 30
0.0
 10
-126.485150
 20
-17.935141
 30
0.0
 10
-126.485646
 20
-18.014705
 30
0.0
  0
SPLINE
  5
223
100
AcDbEntity
  8
0
 62
7
100
AcDbSpline
 70
8
 71
3
 72
8
 73
4
 74
0
 40
0
 40
0
 40
0
 40
0
 40
1
 40
1
 40
1
 40
1
 10
-126.485646
 20
-18.014705
 30
0.0
 10
-126.486142
 20
-18.094269
 30
0.0
 10
-126.455011
 20
-18.170772
 30
0.0
 10
-126.399101
 20
-18.227383
 30
0.0
  0
LWPOLYLINE
  5
224
100
AcDbEntity
  8
0
 62
7
100
AcDbPolyline
 90
2
 70
0
 10
-116.862901
 20
-8.386579
 30
0.0
 10
-126.396455
 20
-17.803124
 30
0.0
  0
SPLINE
  5
225
100
AcDbEntity
  8
0
 62
7
100
AcDbSpline
 70
8
 71
3
 72
8
 73
4
 74
0
 40
0
 40
0
 40
0
 40
0
 40
1
 40
1
 40
1
 40
1
 10
-116.982548
 20
-27.760926
 30
0.0
 10
-116.866125
 20
-27.878807
 30
0.0
 10
-116.676185
 20
-27.879992
 30
0.0
 10
-116.558300
 20
-27.763572
 30
0.0
  0
LWPOLYLINE
  5
226
100
AcDbEntity
  8
0
 62
7
100
AcDbPolyline
 90
2
 70
0
 10
-126.399101
 20
-18.227383
 30
0.0
 10
-116.982548
 20
-27.760926
 30
0.0
  0
SPLINE
  5
227
100
AcDbEntity
  8
0
 62
7
100
AcDbSpline
 70
8
 71
3
 72
8
 73
4
 74
0
 40
0
 40
0
 40
0
 40
0
 40
1
 40
1
 40
1
 40
1
 10
-107.024743
 20
-18.347027
 30
0.0
 10
-106.968131
 20
-18.291118
 30
0.0
 10
-106.936048
 20
-18.215010
 30
0.0
 10
-106.935552
 20
-18.135446
 30
0.0
  0
SPLINE
  5
228
100
AcDbEntity
  8
0
 62
7
100
AcDbSpline
 70
8
 71
3
 72
8
 73
4
 74
0
 40
0
 40
0
 40
0
 40
0
 40
1
 40
1
 40
1
 40
1
 10
-106.935552
 20
-18.135446
 30
0.0
 10
-106.935056
 20
-18.055881
 30
0.0
 10
-106.966187
 20
-17.979379
 30
0.0
 10
-107.022097
 20
-17.922768
 30
0.0
  0
LWPOLYLINE
  5
229
100
AcDbEntity
  8
0
 62
7
100
AcDbPolyline
 90
2
 70
0
 10
-116.558300
 20
-27.763572
 30
0.0
 10
-107.024743
 20
-18.347027
 30
0.0
  0
LWPOLYLINE
  5
22a
100
AcDbEntity
  8
0
 62
7
100
AcDbPolyline
 90
1
 70
1
 10
-107.022097
 20
-17.922768
 30
0.0
  0
SPLINE
  5
22b
100
AcDbEntity
  8
0
 62
7
100
AcDbSpline
 70
8
 71
3
 72
8
 73
4
 74
0
 40
0
 40
0
 40
0
 40
0
 40
1
 40
1
 40
1
 40
1
 10
-83.595218
 20
-9.277986
 30
0.0
 10
-83.634939
 20
-9.209045
 30
0.0
 10
-83.700421
 20
-9.158706
 30
0.0
 10
-83.777257
 20
-9.138045
 30
0.0
  0
SPLINE
  5
22c
100
AcDbEntity
  8
0
 62
7
100
AcDbSpline
 70
8
 71
3
 72
8
 73
4
 74
0
 40
0
 40
0
 40
0
 40
0
 40
1
 40
1
 40
1
 40
1
 10
-83.777257
 20
-9.138045
 30
0.0
 10
-83.854093
 20
-9.117384
 30
0.0
 10
-83.935990
 20
-9.128092
 30
0.0
 10
-84.004931
 20
-9.167814
 30
0.0
  0
LWPOLYLINE
  5
22d
100
AcDbEntity
  8
0
 62
7
100
AcDbPolyline
 90
2
 70
0
 10
-76.905252
 20
-20.888482
 30
0.0
 10
-83.595218
 20
-9.277986
 30
0.0
  0
SPLINE
  5
22e
100
AcDbEntity
  8
0
 62
7
100
AcDbSpline
 70
8
 71
3
 72
8
 73
4
 74
0
 40
0
 40
0
 40
0
 40
0
 40
1
 40
1
 40
1
 40
1
 10
-95.615455
 20
-15.857749
 30
0.0
 10
-95.684400
 20
-15.897472
 30
0.0
 10
-95.734740
 20
-15.962958
 30
0.0
 10
-95.755399
 20
-16.039799
 30
0.0
  0
SPLINE
  5
22f
100
AcDbEntity
  8
0
 62
7
100
AcDbSpline
 70
8
 71
3
 72
8
 73
4
 74
0
 40
0
 40
0
 40
0
 40
0
 40
1
 40
1
 40
1
 40
1
 10
-95.755399
 20
-16.039799
 30
0.0
 10
-95.776058
 20
-16.116640
 30
0.0
 10
-95.765344
 20
-16.198541
 30
0.0
 10
-95.725615
 20
-16.267482
 30
0.0
  0
LWPOLYLINE
  5
230
100
AcDbEntity
  8
0
 62
7
100
AcDbPolyline
 90
2
 70
0
 10
-84.004931
 20
-9.167814
 30
0.0
 10
-95.615455
 20
-15.857749
 30
0.0
  0
SPLINE
  5
231
100
AcDbEntity
  8
0
 62
7
100
AcDbSpline
 70
8
 71
3
 72
8
 73
4
 74
0
 40
0
 40
0
 40
0
 40
0
 40
1
 40
1
 40
1
 40
1
 10
-89.035643
 20
-27.877978
 30
0.0
 10
-88.995922
 20
-27.946919
 30
0.0
 10
-88.930441
 20
-27.997256
 30
0.0
 10
-88.853605
 20
-28.017918
 30
0.0
  0
SPLINE
  5
232
100
AcDbEntity
  8
0
 62
7
100
AcDbSpline
 70
8
 71
3
 72
8
 73
4
 74
0
 40
0
 40
0
 40
0
 40
0
 40
1
 40
1
 40
1
 40
1
 10
-88.853605
 20
-28.017918
 30
0.0
 10
-88.776770
 20
-28.038579
 30
0.0
 10
-88.694874
 20
-28.027871
 30
0.0
 10
-88.625933
 20
-27.988150
 30
0.0
  0
LWPOLYLINE
  5
233
100
AcDbEntity
  8
0
 62
7
100
AcDbPolyline
 90
2
 70
0
 10
-95.725615
 20
-16.267482
 30
0.0
 10
-89.035643
 20
-27.877978
 30
0.0
  0
SPLINE
  5
234
100
AcDbEntity
  8
0
 62
7
100
AcDbSpline
 70
8
 71
3
 72
8
 73
4
 74
0
 40
0
 40
0
 40
0
 40
0
 40
1
 40
1
 40
1
 40
1
 10
-77.015408
 20
-21.298215
 30
0.0
 10
-76.946464
 20
-21.258492
 30
0.0
 10
-76.896125
 20
-21.193005
 30
0.0
 10
-76.875466
 20
-21.116164
 30
0.0
  0
SPLINE
  5
235
100
AcDbEntity
  8
0
 62
7
100
AcDbSpline
 70
8
 71
3
 72
8
 73
4
 74
0
 40
0
 40
0
 40
0
 40
0
 40
1
 40
1
 40
1
 40
1
 10
-76.875466
 20
-21.116164
 30
0.0
 10
-76.854807
 20
-21.039323
 30
0.0
 10
-76.865522
 20
-20.957423
 30
0.0
 10
-76.905252
 20
-20.888482
 30
0.0
  0
LWPOLYLINE
  5
236
100
AcDbEntity
  8
0
 62
7
100
AcDbPolyline
 90
2
 70
0
 10
-88.625933
 20
-27.988150
 30
0.0
 10
-77.015408
 20
-21.298215
 30
0.0
  0
LWPOLYLINE
  5
237
100
AcDbEntity
  8
0
 62
7
100
AcDbPolyline
 90
1
 70
1
 10
-76.905252
 20
-20.888482
 30
0.0
  0
SPLINE
  5
238
100
AcDbEntity
  8
0
 62
7
100
AcDbSpline
 70
8
 71
3
 72
8
 73
4
 74
0
 40
0
 40
0
 40
0
 40
0
 40
1
 40
1
 40
1
 40
1
 10
-93.133709
 20
7.284238
 30
0.0
 10
-93.173430
 20
7.353179
 30
0.0
 10
-93.238912
 20
7.403518
 30
0.0
 10
-93.315748
 20
7.424179
 30
0.0
  0
SPLINE
  5
239
100
AcDbEntity
  8
0
 62
7
100
AcDbSpline
 70
8
 71
3
 72
8
 73
4
 74
0
 40
0
 40
0
 40
0
 40
0
 40
1
 40
1
 40
1
 40
1
 10
-93.315748
 20
7.424179
 30
0.0
 10
-93.392584
 20
7.444840
 30
0.0
 10
-93.474481
 20
7.434132
 30
0.0
 10
-93.543422
 20
7.394410
 30
0.0
  0
LWPOLYLINE
  5
23a
100
AcDbEntity
  8
0
 62
7
100
AcDbPolyline
 90
2
 70
0
 10
-86.443743
 20
-4.326258
 30
0.0
 10
-93.133709
 20
7.284238
 30
0.0
  0
SPLINE
  5
23b
100
AcDbEntity
  8
0
 62
7
100
AcDbSpline
 70
8
 71
3
 72
8
 73
4
 74
0
 40
0
 40
0
 40
0
 40
0
 40
1
 40
1
 40
1
 40
1
 10
-105.153946
 20
0.704475
 30
0.0
 10
-105.222891
 20
0.664752
 30
0.0
 10
-105.273231
 20
0.599266
 30
0.0
 10
-105.293890
 20
0.522425
 30
0.0
  0
SPLINE
  5
23c
100
AcDbEntity
  8
0
 62
7
100
AcDbSpline
 70
8
 71
3
 72
8
 73
4
 74
0
 40
0
 40
0
 40
0
 40
0
 40
1
 40
1
 40
1
 40
1
 10
-105.293890
 20
0.522425
 30
0.0
 10
-105.314549
 20
0.445584
 30
0.0
 10
-105.303836
 20
0.363683
 30
0.0
 10
-105.264106
 20
0.294742
 30
0.0
  0
LWPOLYLINE
  5
23d
100
AcDbEntity
  8
0
 62
7
100
AcDbPolyline
 90
2
 70
0
 10
-93.543422
 20
7.394410
 30
0.0
 10
-105.153946
 20
0.704475
 30
0.0
  0
SPLINE
  5
23e
100
AcDbEntity
  8
0
 62
7
100
AcDbSpline
 70
8
 71
3
 72
8
 73
4
 74
0
 40
0
 40
0
 40
0
 40
0
 40
1
 40
1
 40
1
 40
1
 10
-98.574134
 20
-11.315754
 30
0.0
 10
-98.534413
 20
-11.384694
 30
0.0
 10
-98.468932
 20
-11.435032
 30
0.0
 10
-98.392096
 20
-11.455694
 30
0.0
  0
SPLINE
  5
23f
100
AcDbEntity
  8
0
 62
7
100
AcDbSpline
 70
8
 71
3
 72
8
 73
4
 74
0
 40
0
 40
0
 40
0
 40
0
 40
1
 40
1
 40
1
 40
1
 10
-98.392096
 20
-11.455694
 30
0.0
 10
-98.315261
 20
-11.476355
 30
0.0
 10
-98.233365
 20
-11.465647
 30
0.0
 10
-98.164424
 20
-11.425926
 30
0.0
  0
LWPOLYLINE
  5
240
100
AcDbEntity
  8
0
 62
7
100
AcDbPolyline
 90
2
 70
0
 10
-105.264106
 20
0.294742
 30
0.0
 10
-98.574134
 20
-11.315754
 30
0.0
  0
SPLINE
  5
241
100
AcDbEntity
  8
0
 62
7
100
AcDbSpline
 70
8
 71
3
 72
8
 73
4
 74
0
 40
0
 40
0
 40
0
 40
0
 40
1
 40
1
 40
1
 40
1
 10
-86.553899
 20
-4.735991
 30
0.0
 10
-86.484955
 20
-4.696268
 30
0.0
 10
-86.434616
 20
-4.630781
 30
0.0
 10
-86.413957
 20
-4.553940
 30
0.0
  0
SPLINE
  5
242
100
AcDbEntity
  8
0
 62
7
100
AcDbSpline
 70
8
 71
3
 72
8
 73
4
 74
0
 40
0
 40
0
 40
0
 40
0
 40
1
 40
1
 40
1
 40
1
 10
-86.413957
 20
-4.553940
 30
0.0
 10
-86.393298
 20
-4.477099
 30
0.0
 10
-86.404013
 20
-4.395199
 30
0.0
 10
-86.443743
 20
-4.326258
 30
0.0
  0
LWPOLYLINE
  5
243
100
AcDbEntity
  8
0
 62
7
100
AcDbPolyline
 90
2
 70
0
 10
-98.164424
 20
-11.425926
 30
0.0
 10
-86.553899
 20
-4.735991
 30
0.0
  0
LWPOLYLINE
  5
244
100
AcDbEntity
  8
0
 62
7
100
AcDbPolyline
 90
1
 70
1
 10
-86.443743
 20
-4.326258
 30
0.0
  0
SPLINE
  5
245
100
AcDbEntity
  8
0
 62
7
100
AcDbSpline
 70
8
 71
3
 72
8
 73
4
 74
0
 40
0
 40
0
 40
0
 40
0
 40
1
 40
1
 40
1
 40
1
 10
-12.349996
 20
24.049993
 30
0.0
 10
-12.270432
 20
24.049993
 30
0.0
 10
-12.194125
 20
24.081600
 30
0.0
 10
-12.137865
 20
24.137861
 30
0.0
  0
SPLINE
  5
246
100
AcDbEntity
  8
0
 62
7
100
AcDbSpline
 70
8
 71
3
 72
8
 73
4
 74
0
 40
0
 40
0
 40
0
 40
0
 40
1
 40
1
 40
1
 40
1
 10
-12.137865
 20
24.137861
 30
0.0
 10
-12.081604
 20
24.194122
 30
0.0
 10
-12.049997
 20
24.270428
 30
0.0
 10
-12.049997
 20
24.349993
 30
0.0
  0
LWPOLYLINE
  5
247
100
AcDbEntity
  8
0
 62
7
100
AcDbPolyline
 90
2
 70
0
 10
-25.749993
 20
24.049993
 30
0.0
 10
-12.349996
 20
24.049993
 30
0.0
  0
SPLINE
  5
248
100
AcDbEntity
  8
0
 62
7
100
AcDbSpline
 70
8
 71
3
 72
8
 73
4
 74
0
 40
0
 40
0
 40
0
 40
0
 40
1
 40
1
 40
1
 40
1
 10
-12.049997
 20
37.749989
 30
0.0
 10
-12.049997
 20
37.829554
 30
0.0
 10
-12.081604
 20
37.905860
 30
0.0
 10
-12.137864
 20
37.962121
 30
0.0
  0
SPLINE
  5
249
100
AcDbEntity
  8
0
 62
7
100
AcDbSpline
 70
8
 71
3
 72
8
 73
4
 74
0
 40
0
 40
0
 40
0
 40
0
 40
1
 40
1
 40
1
 40
1
 10
-12.137864
 20
37.962121
 30
0.0
 10
-12.194125
 20
38.018382
 30
0.0
 10
-12.270431
 20
38.049989
 30
0.0
 10
-12.349996
 20
38.049989
 30
0.0
  0
LWPOLYLINE
  5
24a
100
AcDbEntity
  8
0
 62
7
100
AcDbPolyline
 90
2
 70
0
 10
-12.049997
 20
24.349993
 30
0.0
 10
-12.049997
 20
37.749989
 30
0.0
  0
SPLINE
  5
24b
100
AcDbEntity
  8
0
 62
7
100
AcDbSpline
 70
8
 71
3
 72
8
 73
4
 74
0
 40
0
 40
0
 40
0
 40
0
 40
1
 40
1
 40
1
 40
1
 10
-25.749993
 20
38.049989
 30
0.0
 10
-25.829558
 20
38.049989
 30
0.0
 10
-25.905864
 20
38.018382
 30
0.0
 10
-25.962125
 20
37.962121
 30
0.0
  0
SPLINE
  5
24c
100
AcDbEntity
  8
0
 62
7
100
AcDbSpline
 70
8
 71
3
 72
8
 73
4
 74
0
 40
0
 40
0
 40
0
 40
0
 40
1
 40
1
 40
1
 40
1
 10
-25.962125
 20
37.962121
 30
0.0
 10
-26.018386
 20
37.905860
 30
0.0
 10
-26.049993
 20
37.829554
 30
0.0
 10
-26.049993
 20
37.749989
 30
0.0
  0
LWPOLYLINE
  5
24d
100
AcDbEntity
  8
0
 62
7
100
AcDbPolyline
 90
2
 70
0
 10
-12.349996
 20
38.049989
 30
0.0
 10
-25.749993
 20
38.049989
 30
0.0
  0
SPLINE
  5
24e
100
AcDbEntity
  8
0
 62
7
100
AcDbSpline
 70
8
 71
3
 72
8
 73
4
 74
0
 40
0
 40
0
 40
0
 40
0
 40
1
 40
1
 40
1
 40
1
 10
-26.049993
 20
24.349993
 30
0.0
 10
-26.049993
 20
24.270428
 30
0.0
 10
-26.018386
 20
24.194122
 30
0.0
 10
-25.962125
 20
24.137861
 30
0.0
  0
SPLINE
  5
24f
100
AcDbEntity
  8
0
 62
7
100
AcDbSpline
 70
8
 71
3
 72
8
 73
4
 74
0
 40
0
 40
0
 40
0
 40
0
 40
1
 40
1
 40
1
 40
1
 10
-25.962125
 20
24.137861
 30
0.0
 10
-25.905864
 20
24.081600
 30
0.0
 10
-25.829558
 20
24.049993
 30
0.0
 10
-25.749993
 20
24.049993
 30
0.0
  0
LWPOLYLINE
  5
250
100
AcDbEntity
  8
0
 62
7
100
AcDbPolyline
 90
2
 70
0
 10
-26.049993
 20
37.749989
 30
0.0
 10
-26.049993
 20
24.349993
 30
0.0
  0
LWPOLYLINE
  5
251
100
AcDbEntity
  8
0
 62
7
100
AcDbPolyline
 90
1
 70
1
 10
-25.749993
 20
24.049993
 30
0.0
  0
SPLINE
  5
252
100
AcDbEntity
  8
0
 62
7
100
AcDbSpline
 70
8
 71
3
 72
8
 73
4
 74
0
 40
0
 40
0
 40
0
 40
0
 40
1
 40
1
 40
1
 40
1
 10
12.049997
 20
12.349987
 30
0.0
 10
12.049997
 20
12.270422
 30
0.0
 10
12.081604
 20
12.194116
 30
0.0
 10
12.137864
 20
12.137855
 30
0.0
  0
SPLINE
  5
253
100
AcDbEntity
  8
0
 62
7
100
AcDbSpline
 70
8
 71
3
 72
8
 73
4
 74
0
 40
0
 40
0
 40
0
 40
0
 40
1
 40
1
 40
1
 40
1
 10
12.137864
 20
12.137855
 30
0.0
 10
12.194125
 20
12.081594
 30
0.0
 10
12.270431
 20
12.049987
 30
0.0
 10
12.349996
 20
12.049987
 30
0.0
  0
LWPOLYLINE
  5
254
100
AcDbEntity
  8
0
 62
7
100
AcDbPolyline
 90
2
 70
0
 10
12.049997
 20
25.749983
 30
0.0
 10
12.049997
 20
12.349987
 30
0.0
  0
SPLINE
  5
255
100
AcDbEntity
  8
0
 62
7
100
AcDbSpline
 70
8
 71
3
 72
8
 73
4
 74
0
 40
0
 40
0
 40
0
 40
0
 40
1
 40
1
 40
1
 40
1
 10
25.749993
 20
12.049987
 30
0.0
 10
25.829558
 20
12.049987
 30
0.0
 10
25.905864
 20
12.081594
 30
0.0
 10
25.962125
 20
12.137855
 30
0.0
  0
SPLINE
  5
256
100
AcDbEntity
  8
0
 62
7
100
AcDbSpline
 70
8
 71
3
 72
8
 73
4
 74
0
 40
0
 40
0
 40
0
 40
0
 40
1
 40
1
 40
1
 40
1
 10
25.962125
 20
12.137855
 30
0.0
 10
26.018386
 20
12.194116
 30
0.0
 10
26.049993
 20
12.270422
 30
0.0
 10
26.049993
 20
12.349987
 30
0.0
  0
LWPOLYLINE
  5
257
100
AcDbEntity
  8
0
 62
7
100
AcDbPolyline
 90
2
 70
0
 10
12.349996
 20
12.049987
 30
0.0
 10
25.749993
 20
12.049987
 30
0.0
  0
SPLINE
  5
258
100
AcDbEntity
  8
0
 62
7
100
AcDbSpline
 70
8
 71
3
 72
8
 73
4
 74
0
 40
0
 40
0
 40
0
 40
0
 40
1
 40
1
 40
1
 40
1
 10
26.049993
 20
25.749983
 30
0.0
 10
26.049993
 20
25.829548
 30
0.0
 10
26.018386
 20
25.905854
 30
0.0
 10
25.962125
 20
25.962115
 30
0.0
  0
SPLINE
  5
259
100
AcDbEntity
  8
0
 62
7
100
AcDbSpline
 70
8
 71
3
 72
8
 73
4
 74
0
 40
0
 40
0
 40
0
 40
0
 40
1
 40
1
 40
1
 40
1
 10
25.962125
 20
25.962115
 30
0.0
 10
25.905864
 20
26.018376
 30
0.0
 10
25.829558
 20
26.049983
 30
0.0
 10
25.749993
 20
26.049983
 30
0.0
  0
LWPOLYLINE
  5
25a
100
AcDbEntity
  8
0
 62
7
100
AcDbPolyline
 90
2
 70
0
 10
26.049993
 20
12.349987
 30
0.0
 10
26.049993
 20
25.749983
 30
0.0
  0
SPLINE
  5
25b
100
AcDbEntity
  8
0
 62
7
100
AcDbSpline
 70
8
 71
3
 72
8
 73
4
 74
0
 40
0
 40
0
 40
0
 40
0
 40
1
 40
1
 40
1
 40
1
 10
12.349996
 20
26.049983
 30
0.0
 10
12.270432
 20
26.049983
 30
0.0
 10
12.194125
 20
26.018376
 30
0.0
 10
12.137865
 20
25.962115
 30
0.0
  0
SPLINE
  5
25c
100
AcDbEntity
  8
0
 62
7
100
AcDbSpline
 70
8
 71
3
 72
8
 73
4
 74
0
 40
0
 40
0
 40
0
 40
0
 40
1
 40
1
 40
1
 40
1
 10
12.137865
 20
25.962115
 30
0.0
 10
12.081604
 20
25.905854
 30
0.0
 10
12.049997
 20
25.829548
 30
0.0
 10
12.049997
 20
25.749983
 30
0.0
  0
LWPOLYLINE
  5
25d
100
AcDbEntity
  8
0
 62
7
100
AcDbPolyline
 90
2
 70
0
 10
25.749993
 20
26.049983
 30
0.0
 10
12.349996
 20
26.049983
 30
0.0
  0
LWPOLYLINE
  5
25e
100
AcDbEntity
  8
0
 62
7
100
AcDbPolyline
 90
1
 70
1
 10
12.049997
 20
25.749983
 30
0.0
  0
SPLINE
  5
25f
100
AcDbEntity
  8
0
 62
7
100
AcDbSpline
 70
8
 71
3
 72
8
 73
4
 74
0
 40
0
 40
0
 40
0
 40
0
 40
1
 40
1
 40
1
 40
1
 10
-26.049993
 20
5.299999
 30
0.0
 10
-26.049993
 20
5.220434
 30
0.0
 10
-26.018386
 20
5.144127
 30
0.0
 10
-25.962125
 20
5.087867
 30
0.0
  0
SPLINE
  5
260
100
AcDbEntity
  8
0
 62
7
100
AcDbSpline
 70
8
 71
3
 72
8
 73
4
 74
0
 40
0
 40
0
 40
0
 40
0
 40
1
 40
1
 40
1
 40
1
 10
-25.962125
 20
5.087867
 30
0.0
 10
-25.905864
 20
5.031606
 30
0.0
 10
-25.829558
 20
4.999999
 30
0.0
 10
-25.749993
 20
4.999999
 30
0.0
  0
LWPOLYLINE
  5
261
100
AcDbEntity
  8
0
 62
7
100
AcDbPolyline
 90
2
 70
0
 10
-26.049993
 20
18.699995
 30
0.0
 10
-26.049993
 20
5.299999
 30
0.0
  0
SPLINE
  5
262
100
AcDbEntity
  8
0
 62
7
100
AcDbSpline
 70
8
 71
3
 72
8
 73
4
 74
0
 40
0
 40
0
 40
0
 40
0
 40
1
 40
1
 40
1
 40
1
 10
-12.349996
 20
4.999999
 30
0.0
 10
-12.270432
 20
4.999999
 30
0.0
 10
-12.194125
 20
5.031606
 30
0.0
 10
-12.137865
 20
5.087867
 30
0.0
  0
SPLINE
  5
263
100
AcDbEntity
  8
0
 62
7
100
AcDbSpline
 70
8
 71
3
 72
8
 73
4
 74
0
 40
0
 40
0
 40
0
 40
0
 40
1
 40
1
 40
1
 40
1
 10
-12.137865
 20
5.087867
 30
0.0
 10
-12.081604
 20
5.144127
 30
0.0
 10
-12.049997
 20
5.220434
 30
0.0
 10
-12.049997
 20
5.299999
 30
0.0
  0
LWPOLYLINE
  5
264
100
AcDbEntity
  8
0
 62
7
100
AcDbPolyline
 90
2
 70
0
 10
-25.749993
 20
4.999999
 30
0.0
 10
-12.349996
 20
4.999999
 30
0.0
  0
SPLINE
  5
265
100
AcDbEntity
  8
0
 62
7
100
AcDbSpline
 70
8
 71
3
 72
8
 73
4
 74
0
 40
0
 40
0
 40
0
 40
0
 40
1
 40
1
 40
1
 40
1
 10
-12.049997
 20
18.699995
 30
0.0
 10
-12.049997
 20
18.779560
 30
0.0
 10
-12.081604
 20
18.855866
 30
0.0
 10
-12.137864
 20
18.912127
 30
0.0
  0
SPLINE
  5
266
100
AcDbEntity
  8
0
 62
7
100
AcDbSpline
 70
8
 71
3
 72
8
 73
4
 74
0
 40
0
 40
0
 40
0
 40
0
 40
1
 40
1
 40
1
 40
1
 10
-12.137864
 20
18.912127
 30
0.0
 10
-12.194125
 20
18.968388
 30
0.0
 10
-12.270431
 20
18.999995
 30
0.0
 10
-12.349996
 20
18.999995
 30
0.0
  0
LWPOLYLINE
  5
267
100
AcDbEntity
  8
0
 62
7
100
AcDbPolyline
 90
2
 70
0
 10
-12.049997
 20
5.299999
 30
0.0
 10
-12.049997
 20
18.699995
 30
0.0
  0
SPLINE
  5
268
100
AcDbEntity
  8
0
 62
7
100
AcDbSpline
 70
8
 71
3
 72
8
 73
4
 74
0
 40
0
 40
0
 40
0
 40
0
 40
1
 40
1
 40
1
 40
1
 10
-25.749993
 20
18.999995
 30
0.0
 10
-25.829558
 20
18.999995
 30
0.0
 10
-25.905864
 20
18.968388
 30
0.0
 10
-25.962125
 20
18.912127
 30
0.0
  0
SPLINE
  5
269
100
AcDbEntity
  8
0
 62
7
100
AcDbSpline
 70
8
 71
3
 72
8
 73
4
 74
0
 40
0
 40
0
 40
0
 40
0
 40
1
 40
1
 40
1
 40
1
 10
-25.962125
 20
18.912127
 30
0.0
 10
-26.018386
 20
18.855866
 30
0.0
 10
-26.049993
 20
18.779560
 30
0.0
 10
-26.049993
 20
18.699995
 30
0.0
  0
LWPOLYLINE
  5
26a
100
AcDbEntity
  8
0
 62
7
100
AcDbPolyline
 90
2
 70
0
 10
-12.349996
 20
18.999995
 30
0.0
 10
-25.749993
 20
18.999995
 30
0.0
  0
LWPOLYLINE
  5
26b
100
AcDbEntity
  8
0
 62
7
100
AcDbPolyline
 90
1
 70
1
 10
-26.049993
 20
18.699995
 30
0.0
  0
SPLINE
  5
26c
100
AcDbEntity
  8
0
 62
7
100
AcDbSpline
 70
8
 71
3
 72
8
 73
4
 74
0
 40
0
 40
0
 40
0
 40
0
 40
1
 40
1
 40
1
 40
1
 10
-83.199977
 20
40.399989
 30
0.0
 10
-83.199977
 20
40.320424
 30
0.0
 10
-83.168370
 20
40.244118
 30
0.0
 10
-83.112109
 20
40.187857
 30
0.0
  0
SPLINE
  5
26d
100
AcDbEntity
  8
0
 62
7
100
AcDbSpline
 70
8
 71
3
 72
8
 73
4
 74
0
 40
0
 40
0
 40
0
 40
0
 40
1
 40
1
 40
1
 40
1
 10
-83.112109
 20
40.187857
 30
0.0
 10
-83.055848
 20
40.131596
 30
0.0
 10
-82.979542
 20
40.099989
 30
0.0
 10
-82.899977
 20
40.099989
 30
0.0
  0
LWPOLYLINE
  5
26e
100
AcDbEntity
  8
0
 62
7
100
AcDbPolyline
 90
2
 70
0
 10
-83.199977
 20
53.799985
 30
0.0
 10
-83.199977
 20
40.399989
 30
0.0
  0
SPLINE
  5
26f
100
AcDbEntity
  8
0
 62
7
100
AcDbSpline
 70
8
 71
3
 72
8
 73
4
 74
0
 40
0
 40
0
 40
0
 40
0
 40
1
 40
1
 40
1
 40
1
 10
-69.499980
 20
40.099989
 30
0.0
 10
-69.420415
 20
40.099989
 30
0.0
 10
-69.344109
 20
40.131596
 30
0.0
 10
-69.287848
 20
40.187857
 30
0.0
  0
SPLINE
  5
270
100
AcDbEntity
  8
0
 62
7
100
AcDbSpline
 70
8
 71
3
 72
8
 73
4
 74
0
 40
0
 40
0
 40
0
 40
0
 40
1
 40
1
 40
1
 40
1
 10
-69.287848
 20
40.187857
 30
0.0
 10
-69.231588
 20
40.244118
 30
0.0
 10
-69.199981
 20
40.320424
 30
0.0
 10
-69.199981
 20
40.399989
 30
0.0
  0
LWPOLYLINE
  5
271
100
AcDbEntity
  8
0
 62
7
100
AcDbPolyline
 90
2
 70
0
 10
-82.899977
 20
40.099989
 30
0.0
 10
-69.499980
 20
40.099989
 30
0.0
  0
SPLINE
  5
272
100
AcDbEntity
  8
0
 62
7
100
AcDbSpline
 70
8
 71
3
 72
8
 73
4
 74
0
 40
0
 40
0
 40
0
 40
0
 40
1
 40
1
 40
1
 40
1
 10
-69.199981
 20
53.799985
 30
0.0
 10
-69.199981
 20
53.879550
 30
0.0
 10
-69.231588
 20
53.955856
 30
0.0
 10
-69.287848
 20
54.012117
 30
0.0
  0
SPLINE
  5
273
100
AcDbEntity
  8
0
 62
7
100
AcDbSpline
 70
8
 71
3
 72
8
 73
4
 74
0
 40
0
 40
0
 40
0
 40
0
 40
1
 40
1
 40
1
 40
1
 10
-69.287848
 20
54.012117
 30
0.0
 10
-69.344109
 20
54.068378
 30
0.0
 10
-69.420415
 20
54.099985
 30
0.0
 10
-69.499980
 20
54.099985
 30
0.0
  0
LWPOLYLINE
  5
274
100
AcDbEntity
  8
0
 62
7
100
AcDbPolyline
 90
2
 70
0
 10
-69.199981
 20
40.399989
 30
0.0
 10
-69.199981
 20
53.799985
 30
0.0
  0
SPLINE
  5
275
100
AcDbEntity
  8
0
 62
7
100
AcDbSpline
 70
8
 71
3
 72
8
 73
4
 74
0
 40
0
 40
0
 40
0
 40
0
 40
1
 40
1
 40
1
 40
1
 10
-82.899977
 20
54.099985
 30
0.0
 10
-82.979542
 20
54.099985
 30
0.0
 10
-83.055848
 20
54.068378
 30
0.0
 10
-83.112109
 20
54.012117
 30
0.0
  0
SPLINE
  5
276
100
AcDbEntity
  8
0
 62
7
100
AcDbSpline
 70
8
 71
3
 72
8
 73
4
 74
0
 40
0
 40
0
 40
0
 40
0
 40
1
 40
1
 40
1
 40
1
 10
-83.112109
 20
54.012117
 30
0.0
 10
-83.168370
 20
53.955856
 30
0.0
 10
-83.199977
 20
53.879550
 30
0.0
 10
-83.199977
 20
53.799985
 30
0.0
  0
LWPOLYLINE
  5
277
100
AcDbEntity
  8
0
 62
7
100
AcDbPolyline
 90
2
 70
0
 10
-69.499980
 20
54.099985
 30
0.0
 10
-82.899977
 20
54.099985
 30
0.0
  0
LWPOLYLINE
  5
278
100
AcDbEntity
  8
0
 62
7
100
AcDbPolyline
 90
1
 70
1
 10
-83.199977
 20
53.799985
 30
0.0
  0
SPLINE
  5
279
100
AcDbEntity
  8
0
 62
7
100
AcDbSpline
 70
8
 71
3
 72
8
 73
4
 74
0
 40
0
 40
0
 40
0
 40
0
 40
1
 40
1
 40
1
 40
1
 10
-64.149982
 20
4.799999
 30
0.0
 10
-64.149982
 20
4.720434
 30
0.0
 10
-64.118375
 20
4.644128
 30
0.0
 10
-64.062114
 20
4.587867
 30
0.0
  0
SPLINE
  5
27a
100
AcDbEntity
  8
0
 62
7
100
AcDbSpline
 70
8
 71
3
 72
8
 73
4
 74
0
 40
0
 40
0
 40
0
 40
0
 40
1
 40
1
 40
1
 40
1
 10
-64.062114
 20
4.587867
 30
0.0
 10
-64.005853
 20
4.531606
 30
0.0
 10
-63.929547
 20
4.499999
 30
0.0
 10
-63.849982
 20
4.499999
 30
0.0
  0
LWPOLYLINE
  5
27b
100
AcDbEntity
  8
0
 62
7
100
AcDbPolyline
 90
2
 70
0
 10
-64.149982
 20
18.199995
 30
0.0
 10
-64.149982
 20
4.799999
 30
0.0
  0
SPLINE
  5
27c
100
AcDbEntity
  8
0
 62
7
100
AcDbSpline
 70
8
 71
3
 72
8
 73
4
 74
0
 40
0
 40
0
 40
0
 40
0
 40
1
 40
1
 40
1
 40
1
 10
-50.449986
 20
4.499999
 30
0.0
 10
-50.370421
 20
4.499999
 30
0.0
 10
-50.294115
 20
4.531606
 30
0.0
 10
-50.237854
 20
4.587867
 30
0.0
  0
SPLINE
  5
27d
100
AcDbEntity
  8
0
 62
7
100
AcDbSpline
 70
8
 71
3
 72
8
 73
4
 74
0
 40
0
 40
0
 40
0
 40
0
 40
1
 40
1
 40
1
 40
1
 10
-50.237854
 20
4.587867
 30
0.0
 10
-50.181593
 20
4.644128
 30
0.0
 10
-50.149986
 20
4.720434
 30
0.0
 10
-50.149986
 20
4.799999
 30
0.0
  0
LWPOLYLINE
  5
27e
100
AcDbEntity
  8
0
 62
7
100
AcDbPolyline
 90
2
 70
0
 10
-63.849982
 20
4.499999
 30
0.0
 10
-50.449986
 20
4.499999
 30
0.0
  0
SPLINE
  5
27f
100
AcDbEntity
  8
0
 62
7
100
AcDbSpline
 70
8
 71
3
 72
8
 73
4
 74
0
 40
0
 40
0
 40
0
 40
0
 40
1
 40
1
 40
1
 40
1
 10
-50.149986
 20
18.199995
 30
0.0
 10
-50.149986
 20
18.279560
 30
0.0
 10
-50.181593
 20
18.355866
 30
0.0
 10
-50.237854
 20
18.412127
 30
0.0
  0
SPLINE
  5
280
100
AcDbEntity
  8
0
 62
7
100
AcDbSpline
 70
8
 71
3
 72
8
 73
4
 74
0
 40
0
 40
0
 40
0
 40
0
 40
1
 40
1
 40
1
 40
1
 10
-50.237854
 20
18.412127
 30
0.0
 10
-50.294115
 20
18.468388
 30
0.0
 10
-50.370421
 20
18.499995
 30
0.0
 10
-50.449986
 20
18.499995
 30
0.0
  0
LWPOLYLINE
  5
281
100
AcDbEntity
  8
0
 62
7
100
AcDbPolyline
 90
2
 70
0
 10
-50.149986
 20
4.799999
 30
0.0
 10
-50.149986
 20
18.199995
 30
0.0
  0
SPLINE
  5
282
100
AcDbEntity
  8
0
 62
7
100
AcDbSpline
 70
8
 71
3
 72
8
 73
4
 74
0
 40
0
 40
0
 40
0
 40
0
 40
1
 40
1
 40
1
 40
1
 10
-63.849982
 20
18.499995
 30
0.0
 10
-63.929547
 20
18.499995
 30
0.0
 10
-64.005853
 20
18.468388
 30
0.0
 10
-64.062114
 20
18.412127
 30
0.0
  0
SPLINE
  5
283
100
AcDbEntity
  8
0
 62
7
100
AcDbSpline
 70
8
 71
3
 72
8
 73
4
 74
0
 40
0
 40
0
 40
0
 40
0
 40
1
 40
1
 40
1
 40
1
 10
-64.062114
 20
18.412127
 30
0.0
 10
-64.118375
 20
18.355866
 30
0.0
 10
-64.149982
 20
18.279560
 30
0.0
 10
-64.149982
 20
18.199995
 30
0.0
  0
LWPOLYLINE
  5
284
100
AcDbEntity
  8
0
 62
7
100
AcDbPolyline
 90
2
 70
0
 10
-50.449986
 20
18.499995
 30
0.0
 10
-63.849982
 20
18.499995
 30
0.0
  0
SPLINE
  5
285
100
AcDbEntity
  8
0
 62
7
100
AcDbSpline
 70
8
 71
3
 72
8
 73
4
 74
0
 40
0
 40
0
 40
0
 40
0
 40
1
 40
1
 40
1
 40
1
 10
-45.424987
 20
10.249997
 30
0.0
 10
-45.424987
 20
11.035981
 30
0.0
 10
-45.844305
 20
11.762260
 30
0.0
 10
-46.524987
 20
12.155252
 30
0.0
  0
SPLINE
  5
286
100
AcDbEntity
  8
0
 62
7
100
AcDbSpline
 70
8
 71
3
 72
8
 73
4
 74
0
 40
0
 40
0
 40
0
 40
0
 40
1
 40
1
 40
1
 40
1
 10
-46.524987
 20
12.155252
 30
0.0
 10
-47.205669
 20
12.548245
 30
0.0
 10
-48.044304
 20
12.548245
 30
0.0
 10
-48.724986
 20
12.155252
 30
0.0
  0
SPLINE
  5
287
100
AcDbEntity
  8
0
 62
7
100
AcDbSpline
 70
8
 71
3
 72
8
 73
4
 74
0
 40
0
 40
0
 40
0
 40
0
 40
1
 40
1
 40
1
 40
1
 10
-48.724986
 20
12.155252
 30
0.0
 10
-49.405669
 20
11.762260
 30
0.0
 10
-49.824986
 20
11.035981
 30
0.0
 10
-49.824986
 20
10.249997
 30
0.0
  0
SPLINE
  5
288
100
AcDbEntity
  8
0
 62
7
100
AcDbSpline
 70
8
 71
3
 72
8
 73
4
 74
0
 40
0
 40
0
 40
0
 40
0
 40
1
 40
1
 40
1
 40
1
 10
-49.824986
 20
10.249997
 30
0.0
 10
-49.824986
 20
9.464013
 30
0.0
 10
-49.405669
 20
8.737734
 30
0.0
 10
-48.724986
 20
8.344742
 30
0.0
  0
SPLINE
  5
289
100
AcDbEntity
  8
0
 62
7
100
AcDbSpline
 70
8
 71
3
 72
8
 73
4
 74
0
 40
0
 40
0
 40
0
 40
0
 40
1
 40
1
 40
1
 40
1
 10
-48.724986
 20
8.344742
 30
0.0
 10
-48.044304
 20
7.951750
 30
0.0
 10
-47.205669
 20
7.951750
 30
0.0
 10
-46.524987
 20
8.344742
 30
0.0
  0
SPLINE
  5
28a
100
AcDbEntity
  8
0
 62
7
100
AcDbSpline
 70
8
 71
3
 72
8
 73
4
 74
0
 40
0
 40
0
 40
0
 40
0
 40
1
 40
1
 40
1
 40
1
 10
-46.524987
 20
8.344742
 30
0.0
 10
-45.844305
 20
8.737734
 30
0.0
 10
-45.424987
 20
9.464013
 30
0.0
 10
-45.424987
 20
10.249997
 30
0.0
  0
LWPOLYLINE
  5
28b
100
AcDbEntity
  8
0
 62
7
100
AcDbPolyline
 90
1
 70
1
 10
-64.149982
 20
18.199995
 30
0.0
  0
SPLINE
  5
28c
100
AcDbEntity
  8
0
 62
7
100
AcDbSpline
 70
8
 71
3
 72
8
 73
4
 74
0
 40
0
 40
0
 40
0
 40
0
 40
1
 40
1
 40
1
 40
1
 10
-45.424987
 20
48.349986
 30
0.0
 10
-45.424987
 20
49.135970
 30
0.0
 10
-45.844305
 20
49.862250
 30
0.0
 10
-46.524987
 20
50.255242
 30
0.0
  0
SPLINE
  5
28d
100
AcDbEntity
  8
0
 62
7
100
AcDbSpline
 70
8
 71
3
 72
8
 73
4
 74
0
 40
0
 40
0
 40
0
 40
0
 40
1
 40
1
 40
1
 40
1
 10
-46.524987
 20
50.255242
 30
0.0
 10
-47.205669
 20
50.648234
 30
0.0
 10
-48.044304
 20
50.648234
 30
0.0
 10
-48.724986
 20
50.255242
 30
0.0
  0
SPLINE
  5
28e
100
AcDbEntity
  8
0
 62
7
100
AcDbSpline
 70
8
 71
3
 72
8
 73
4
 74
0
 40
0
 40
0
 40
0
 40
0
 40
1
 40
1
 40
1
 40
1
 10
-48.724986
 20
50.255242
 30
0.0
 10
-49.405669
 20
49.862250
 30
0.0
 10
-49.824986
 20
49.135970
 30
0.0
 10
-49.824986
 20
48.349986
 30
0.0
  0
SPLINE
  5
28f
100
AcDbEntity
  8
0
 62
7
100
AcDbSpline
 70
8
 71
3
 72
8
 73
4
 74
0
 40
0
 40
0
 40
0
 40
0
 40
1
 40
1
 40
1
 40
1
 10
-49.824986
 20
48.349986
 30
0.0
 10
-49.824986
 20
47.564002
 30
0.0
 10
-49.405669
 20
46.837723
 30
0.0
 10
-48.724986
 20
46.444731
 30
0.0
  0
SPLINE
  5
290
100
AcDbEntity
  8
0
 62
7
100
AcDbSpline
 70
8
 71
3
 72
8
 73
4
 74
0
 40
0
 40
0
 40
0
 40
0
 40
1
 40
1
 40
1
 40
1
 10
-48.724986
 20
46.444731
 30
0.0
 10
-48.044304
 20
46.051739
 30
0.0
 10
-47.205669
 20
46.051739
 30
0.0
 10
-46.524987
 20
46.444731
 30
0.0
  0
SPLINE
  5
291
100
AcDbEntity
  8
0
 62
7
100
AcDbSpline
 70
8
 71
3
 72
8
 73
4
 74
0
 40
0
 40
0
 40
0
 40
0
 40
1
 40
1
 40
1
 40
1
 10
-46.524987
 20
46.444731
 30
0.0
 10
-45.844305
 20
46.837723
 30
0.0
 10
-45.424987
 20
47.564002
 30
0.0
 10
-45.424987
 20
48.349986
 30
0.0
  0
LWPOLYLINE
  5
292
100
AcDbEntity
  8
0
 62
7
100
AcDbPolyline
 90
1
 70
1
 10
-45.424987
 20
10.249997
 30
0.0
  0
SPLINE
  5
293
100
AcDbEntity
  8
0
 62
7
100
AcDbSpline
 70
8
 71
3
 72
8
 73
4
 74
0
 40
0
 40
0
 40
0
 40
0
 40
1
 40
1
 40
1
 40
1
 10
-26.374993
 20
29.299992
 30
0.0
 10
-26.374992
 20
30.085976
 30
0.0
 10
-26.794310
 20
30.812255
 30
0.0
 10
-27.474992
 20
31.205247
 30
0.0
  0
SPLINE
  5
294
100
AcDbEntity
  8
0
 62
7
100
AcDbSpline
 70
8
 71
3
 72
8
 73
4
 74
0
 40
0
 40
0
 40
0
 40
0
 40
1
 40
1
 40
1
 40
1
 10
-27.474992
 20
31.205247
 30
0.0
 10
-28.155674
 20
31.598239
 30
0.0
 10
-28.994310
 20
31.598239
 30
0.0
 10
-29.674992
 20
31.205247
 30
0.0
  0
SPLINE
  5
295
100
AcDbEntity
  8
0
 62
7
100
AcDbSpline
 70
8
 71
3
 72
8
 73
4
 74
0
 40
0
 40
0
 40
0
 40
0
 40
1
 40
1
 40
1
 40
1
 10
-29.674992
 20
31.205247
 30
0.0
 10
-30.355674
 20
30.812255
 30
0.0
 10
-30.774991
 20
30.085976
 30
0.0
 10
-30.774991
 20
29.299992
 30
0.0
  0
SPLINE
  5
296
100
AcDbEntity
  8
0
 62
7
100
AcDbSpline
 70
8
 71
3
 72
8
 73
4
 74
0
 40
0
 40
0
 40
0
 40
0
 40
1
 40
1
 40
1
 40
1
 10
-30.774991
 20
29.299992
 30
0.0
 10
-30.774991
 20
28.514008
 30
0.0
 10
-30.355674
 20
27.787728
 30
0.0
 10
-29.674992
 20
27.394736
 30
0.0
  0
SPLINE
  5
297
100
AcDbEntity
  8
0
 62
7
100
AcDbSpline
 70
8
 71
3
 72
8
 73
4
 74
0
 40
0
 40
0
 40
0
 40
0
 40
1
 40
1
 40
1
 40
1
 10
-29.674992
 20
27.394736
 30
0.0
 10
-28.994310
 20
27.001744
 30
0.0
 10
-28.155674
 20
27.001744
 30
0.0
 10
-27.474992
 20
27.394736
 30
0.0
  0
SPLINE
  5
298
100
AcDbEntity
  8
0
 62
7
100
AcDbSpline
 70
8
 71
3
 72
8
 73
4
 74
0
 40
0
 40
0
 40
0
 40
0
 40
1
 40
1
 40
1
 40
1
 10
-27.474992
 20
27.394736
 30
0.0
 10
-26.794310
 20
27.787728
 30
0.0
 10
-26.374992
 20
28.514008
 30
0.0
 10
-26.374993
 20
29.299992
 30
0.0
  0
LWPOLYLINE
  5
299
100
AcDbEntity
  8
0
 62
7
100
AcDbPolyline
 90
1
 70
1
 10
-45.424987
 20
48.349986
 30
0.0
  0
SPLINE
  5
29a
100
AcDbEntity
  8
0
 62
7
100
AcDbSpline
 70
8
 71
3
 72
8
 73
4
 74
0
 40
0
 40
0
 40
0
 40
0
 40
1
 40
1
 40
1
 40
1
 10
-64.474982
 20
29.299992
 30
0.0
 10
-64.474982
 20
30.085976
 30
0.0
 10
-64.894299
 20
30.812255
 30
0.0
 10
-65.574982
 20
31.205247
 30
0.0
  0
SPLINE
  5
29b
100
AcDbEntity
  8
0
 62
7
100
AcDbSpline
 70
8
 71
3
 72
8
 73
4
 74
0
 40
0
 40
0
 40
0
 40
0
 40
1
 40
1
 40
1
 40
1
 10
-65.574982
 20
31.205247
 30
0.0
 10
-66.255664
 20
31.598239
 30
0.0
 10
-67.094299
 20
31.598239
 30
0.0
 10
-67.774981
 20
31.205247
 30
0.0
  0
SPLINE
  5
29c
100
AcDbEntity
  8
0
 62
7
100
AcDbSpline
 70
8
 71
3
 72
8
 73
4
 74
0
 40
0
 40
0
 40
0
 40
0
 40
1
 40
1
 40
1
 40
1
 10
-67.774981
 20
31.205247
 30
0.0
 10
-68.455663
 20
30.812255
 30
0.0
 10
-68.874981
 20
30.085976
 30
0.0
 10
-68.874981
 20
29.299992
 30
0.0
  0
SPLINE
  5
29d
100
AcDbEntity
  8
0
 62
7
100
AcDbSpline
 70
8
 71
3
 72
8
 73
4
 74
0
 40
0
 40
0
 40
0
 40
0
 40
1
 40
1
 40
1
 40
1
 10
-68.874981
 20
29.299992
 30
0.0
 10
-68.874981
 20
28.514008
 30
0.0
 10
-68.455663
 20
27.787728
 30
0.0
 10
-67.774981
 20
27.394736
 30
0.0
  0
SPLINE
  5
29e
100
AcDbEntity
  8
0
 62
7
100
AcDbSpline
 70
8
 71
3
 72
8
 73
4
 74
0
 40
0
 40
0
 40
0
 40
0
 40
1
 40
1
 40
1
 40
1
 10
-67.774981
 20
27.394736
 30
0.0
 10
-67.094299
 20
27.001744
 30
0.0
 10
-66.255664
 20
27.001744
 30
0.0
 10
-65.574982
 20
27.394736
 30
0.0
  0
SPLINE
  5
29f
100
AcDbEntity
  8
0
 62
7
100
AcDbSpline
 70
8
 71
3
 72
8
 73
4
 74
0
 40
0
 40
0
 40
0
 40
0
 40
1
 40
1
 40
1
 40
1
 10
-65.574982
 20
27.394736
 30
0.0
 10
-64.894299
 20
27.787728
 30
0.0
 10
-64.474982
 20
28.514008
 30
0.0
 10
-64.474982
 20
29.299992
 30
0.0
  0
LWPOLYLINE
  5
2a0
100
AcDbEntity
  8
0
 62
7
100
AcDbPolyline
 90
1
 70
1
 10
-26.374993
 20
29.299992
 30
0.0
  0
LWPOLYLINE
  5
2a1
100
AcDbEntity
  8
0
 62
7
100
AcDbPolyline
 90
1
 70
1
 10
-64.474982
 20
29.299992
 30
0.0
  0
ENDSEC
  0
SECTION
  2
OBJECTS
  0
DICTIONARY
  5
C
330
0
100
AcDbDictionary
  3
ACAD_GROUP
350
D
  3
ACAD_MLINESTYLE
350
17
  0
DICTIONARY
  5
D
330
C
100
AcDbDictionary
  0
DICTIONARY
  5
1A
330
C
100
AcDbDictionary
  0
DICTIONARY
  5
17
330
C
100
AcDbDictionary
  3
STANDARD
350
18
  0
DICTIONARY
  5
19
330
C
100
AcDbDictionary
  0
ENDSEC
  0
EOF
