  0
SECTION
  2
HEADER
  9
$ACADVER
  1
AC1014
  9
$HANDSEED
  5
FFFF
  9
$MEASUREMENT
 70
     1
  0
ENDSEC
  0
SECTION
  2
TABLES
  0
TABLE
  2
VPORT
  5
8
330
0
100
AcDbSymbolTable
 70
     4
  0
VPORT
  5
2E
330
8
100
AcDbSymbolTableRecord
100
AcDbViewportTableRecord
  2
*ACTIVE
 70
     0
 10
0.0
 20
0.0
 11
1.0
 21
1.0
 12
210.0
 22
148.5
 13
0.0
 23
0.0
 14
10.0
 24
10.0
 15
10.0
 25
10.0
 16
0.0
 26
0.0
 36
1.0
 17
0.0
 27
0.0
 37
0.0
 40
341.0
 41
1.24
 42
50.0
 43
0.0
 44
0.0
 50
0.0
 51
0.0
 71
     0
 72
   100
 73
     1
 74
     3
 75
     0
 76
     0
 77
     0
 78
     0
  0
ENDTAB
  0
TABLE
  2
LTYPE
  5
5
330
0
100
AcDbSymbolTable
 70
     1
  0
LTYPE
  5
14
330
5
100
AcDbSymbolTableRecord
100
AcDbLinetypeTableRecord
  2
BYBLOCK
 70
     0
  3

 72
    65
 73
     0
 40
0.0
  0
LTYPE
  5
15
330
5
100
AcDbSymbolTableRecord
100
AcDbLinetypeTableRecord
  2
BYLAYER
 70
     0
  3

 72
    65
 73
     0
 40
0.0
  0
LTYPE
  5
16
330
5
100
AcDbSymbolTableRecord
100
AcDbLinetypeTableRecord
  2
CONTINUOUS
 70
     0
  3
Solid line
 72
    65
 73
     0
 40
0.0
  0
ENDTAB
  0
TABLE
  2
LAYER
  5
2
100
AcDbSymbolTable
 70
1
  0
LAYER
  5
50
100
AcDbSymbolTableRecord
100
AcDbLayerTableRecord
  2
0
 70
0
  6
CONTINUOUS
  0
ENDTAB
  0
TABLE
  2
STYLE
  5
3
330
0
100
AcDbSymbolTable
 70
     1
  0
STYLE
  5
11
330
3
100
AcDbSymbolTableRecord
100
AcDbTextStyleTableRecord
  2
STANDARD
 70
     0
 40
0.0
 41
1.0
 50
0.0
 71
     0
 42
2.5
  3
txt
  4

  0
ENDTAB
  0
TABLE
  2
VIEW
  5
6
330
0
100
AcDbSymbolTable
 70
     0
  0
ENDTAB
  0
TABLE
  2
UCS
  5
7
330
0
100
AcDbSymbolTable
 70
     0
  0
ENDTAB
  0
TABLE
  2
APPID
  5
9
330
0
100
AcDbSymbolTable
 70
     2
  0
APPID
  5
12
330
9
100
AcDbSymbolTableRecord
100
AcDbRegAppTableRecord
  2
ACAD
 70
     0
  0
ENDTAB
  0
TABLE
  2
DIMSTYLE
  5
A
330
0
100
AcDbSymbolTable
 70
     1
  0
DIMSTYLE
105
27
330
A
100
AcDbSymbolTableRecord
100
AcDbDimStyleTableRecord
  2
ISO-25
 70
     0
  3

  4

  5

  6

  7

 40
1.0
 41
2.5
 42
0.625
 43
3.75
 44
1.25
 45
0.0
 46
0.0
 47
0.0
 48
0.0
140
2.5
141
2.5
142
0.0
143
0.03937007874016
144
1.0
145
0.0
146
1.0
147
0.625
 71
     0
 72
     0
 73
     0
 74
     0
 75
     0
 76
     0
 77
     1
 78
     8
170
     0
171
     3
172
     1
173
     0
174
     0
175
     0
176
     0
177
     0
178
     0
270
     2
271
     2
272
     2
273
     2
274
     3
340
11
275
     0
280
     0
281
     0
282
     0
283
     0
284
     8
285
     0
286
     0
287
     3
288
     0
  0
ENDTAB
  0
TABLE
  2
BLOCK_RECORD
  5
1
330
0
100
AcDbSymbolTable
 70
     1
  0
BLOCK_RECORD
  5
1F
330
1
100
AcDbSymbolTableRecord
100
AcDbBlockTableRecord
  2
*MODEL_SPACE
  0
BLOCK_RECORD
  5
1B
330
1
100
AcDbSymbolTableRecord
100
AcDbBlockTableRecord
  2
*PAPER_SPACE
  0
ENDTAB
  0
ENDSEC
  0
SECTION
  2
BLOCKS
  0
BLOCK
  5
20
330
1F
100
AcDbEntity
  8
0
100
AcDbBlockBegin
  2
*MODEL_SPACE
 70
     0
 10
0.0
 20
0.0
 30
0.0
  3
*MODEL_SPACE
  1

  0
ENDBLK
  5
21
330
1F
100
AcDbEntity
  8
0
100
AcDbBlockEnd
  0
BLOCK
  5
1C
330
1B
100
AcDbEntity
 67
     1
  8
0
100
AcDbBlockBegin
  2
*PAPER_SPACE
  1

  0
ENDBLK
  5
1D
330
1B
100
AcDbEntity
 67
     1
  8
0
100
AcDbBlockEnd
  0
ENDSEC
  0
SECTION
  2
ENTITIES
  0
SPLINE
  5
100
100
AcDbEntity
  8
0
 62
7
100
AcDbSpline
 70
8
 71
3
 72
8
 73
4
 74
0
 40
0
 40
0
 40
0
 40
0
 40
1
 40
1
 40
1
 40
1
 10
10.724991
 20
9.524981
 30
0.0
 10
10.724991
 20
9.953700
 30
0.0
 10
10.496272
 20
10.349852
 30
0.0
 10
10.124991
 20
10.564211
 30
0.0
  0
SPLINE
  5
101
100
AcDbEntity
  8
0
 62
7
100
AcDbSpline
 70
8
 71
3
 72
8
 73
4
 74
0
 40
0
 40
0
 40
0
 40
0
 40
1
 40
1
 40
1
 40
1
 10
10.124991
 20
10.564211
 30
0.0
 10
9.753710
 20
10.778571
 30
0.0
 10
9.296273
 20
10.778571
 30
0.0
 10
8.924993
 20
10.564211
 30
0.0
  0
SPLINE
  5
102
100
AcDbEntity
  8
0
 62
7
100
AcDbSpline
 70
8
 71
3
 72
8
 73
4
 74
0
 40
0
 40
0
 40
0
 40
0
 40
1
 40
1
 40
1
 40
1
 10
8.924993
 20
10.564211
 30
0.0
 10
8.553712
 20
10.349852
 30
0.0
 10
8.324994
 20
9.953700
 30
0.0
 10
8.324994
 20
9.524981
 30
0.0
  0
SPLINE
  5
103
100
AcDbEntity
  8
0
 62
7
100
AcDbSpline
 70
8
 71
3
 72
8
 73
4
 74
0
 40
0
 40
0
 40
0
 40
0
 40
1
 40
1
 40
1
 40
1
 10
8.324994
 20
9.524981
 30
0.0
 10
8.324994
 20
9.096263
 30
0.0
 10
8.553712
 20
8.700112
 30
0.0
 10
8.924993
 20
8.485753
 30
0.0
  0
SPLINE
  5
104
100
AcDbEntity
  8
0
 62
7
100
AcDbSpline
 70
8
 71
3
 72
8
 73
4
 74
0
 40
0
 40
0
 40
0
 40
0
 40
1
 40
1
 40
1
 40
1
 10
8.924993
 20
8.485753
 30
0.0
 10
9.296273
 20
8.271394
 30
0.0
 10
9.753710
 20
8.271394
 30
0.0
 10
10.124991
 20
8.485753
 30
0.0
  0
SPLINE
  5
105
100
AcDbEntity
  8
0
 62
7
100
AcDbSpline
 70
8
 71
3
 72
8
 73
4
 74
0
 40
0
 40
0
 40
0
 40
0
 40
1
 40
1
 40
1
 40
1
 10
10.124991
 20
8.485753
 30
0.0
 10
10.496272
 20
8.700112
 30
0.0
 10
10.724991
 20
9.096263
 30
0.0
 10
10.724991
 20
9.524981
 30
0.0
  0
SPLINE
  5
106
100
AcDbEntity
  8
0
 62
7
100
AcDbSpline
 70
8
 71
3
 72
8
 73
4
 74
0
 40
0
 40
0
 40
0
 40
0
 40
1
 40
1
 40
1
 40
1
 10
-5.799994
 20
49.849958
 30
0.0
 10
-5.799994
 20
50.278677
 30
0.0
 10
-6.028713
 20
50.674829
 30
0.0
 10
-6.399994
 20
50.889188
 30
0.0
  0
SPLINE
  5
107
100
AcDbEntity
  8
0
 62
7
100
AcDbSpline
 70
8
 71
3
 72
8
 73
4
 74
0
 40
0
 40
0
 40
0
 40
0
 40
1
 40
1
 40
1
 40
1
 10
-6.399994
 20
50.889188
 30
0.0
 10
-6.771275
 20
51.103548
 30
0.0
 10
-7.228713
 20
51.103548
 30
0.0
 10
-7.599994
 20
50.889188
 30
0.0
  0
SPLINE
  5
108
100
AcDbEntity
  8
0
 62
7
100
AcDbSpline
 70
8
 71
3
 72
8
 73
4
 74
0
 40
0
 40
0
 40
0
 40
0
 40
1
 40
1
 40
1
 40
1
 10
-7.599994
 20
50.889188
 30
0.0
 10
-7.971275
 20
50.674829
 30
0.0
 10
-8.199994
 20
50.278677
 30
0.0
 10
-8.199994
 20
49.849958
 30
0.0
  0
SPLINE
  5
109
100
AcDbEntity
  8
0
 62
7
100
AcDbSpline
 70
8
 71
3
 72
8
 73
4
 74
0
 40
0
 40
0
 40
0
 40
0
 40
1
 40
1
 40
1
 40
1
 10
-8.199994
 20
49.849958
 30
0.0
 10
-8.199994
 20
49.421239
 30
0.0
 10
-7.971275
 20
49.025087
 30
0.0
 10
-7.599994
 20
48.810728
 30
0.0
  0
SPLINE
  5
10a
100
AcDbEntity
  8
0
 62
7
100
AcDbSpline
 70
8
 71
3
 72
8
 73
4
 74
0
 40
0
 40
0
 40
0
 40
0
 40
1
 40
1
 40
1
 40
1
 10
-7.599994
 20
48.810728
 30
0.0
 10
-7.228713
 20
48.596369
 30
0.0
 10
-6.771275
 20
48.596369
 30
0.0
 10
-6.399994
 20
48.810728
 30
0.0
  0
SPLINE
  5
10b
100
AcDbEntity
  8
0
 62
7
100
AcDbSpline
 70
8
 71
3
 72
8
 73
4
 74
0
 40
0
 40
0
 40
0
 40
0
 40
1
 40
1
 40
1
 40
1
 10
-6.399994
 20
48.810728
 30
0.0
 10
-6.028713
 20
49.025087
 30
0.0
 10
-5.799994
 20
49.421239
 30
0.0
 10
-5.799994
 20
49.849958
 30
0.0
  0
SPLINE
  5
10c
100
AcDbEntity
  8
0
 62
7
100
AcDbSpline
 70
8
 71
3
 72
8
 73
4
 74
0
 40
0
 40
0
 40
0
 40
0
 40
1
 40
1
 40
1
 40
1
 10
-56.176095
 20
1.630614
 30
0.0
 10
-56.176095
 20
2.059334
 30
0.0
 10
-56.404814
 20
2.455484
 30
0.0
 10
-56.776095
 20
2.669843
 30
0.0
  0
SPLINE
  5
10d
100
AcDbEntity
  8
0
 62
7
100
AcDbSpline
 70
8
 71
3
 72
8
 73
4
 74
0
 40
0
 40
0
 40
0
 40
0
 40
1
 40
1
 40
1
 40
1
 10
-56.776095
 20
2.669843
 30
0.0
 10
-57.147376
 20
2.884203
 30
0.0
 10
-57.604813
 20
2.884203
 30
0.0
 10
-57.976095
 20
2.669843
 30
0.0
  0
SPLINE
  5
10e
100
AcDbEntity
  8
0
 62
7
100
AcDbSpline
 70
8
 71
3
 72
8
 73
4
 74
0
 40
0
 40
0
 40
0
 40
0
 40
1
 40
1
 40
1
 40
1
 10
-57.976095
 20
2.669843
 30
0.0
 10
-58.347376
 20
2.455484
 30
0.0
 10
-58.576094
 20
2.059334
 30
0.0
 10
-58.576094
 20
1.630614
 30
0.0
  0
SPLINE
  5
10f
100
AcDbEntity
  8
0
 62
7
100
AcDbSpline
 70
8
 71
3
 72
8
 73
4
 74
0
 40
0
 40
0
 40
0
 40
0
 40
1
 40
1
 40
1
 40
1
 10
-58.576094
 20
1.630614
 30
0.0
 10
-58.576094
 20
1.201897
 30
0.0
 10
-58.347376
 20
0.805744
 30
0.0
 10
-57.976095
 20
0.591385
 30
0.0
  0
SPLINE
  5
110
100
AcDbEntity
  8
0
 62
7
100
AcDbSpline
 70
8
 71
3
 72
8
 73
4
 74
0
 40
0
 40
0
 40
0
 40
0
 40
1
 40
1
 40
1
 40
1
 10
-57.976095
 20
0.591385
 30
0.0
 10
-57.604813
 20
0.377026
 30
0.0
 10
-57.147376
 20
0.377026
 30
0.0
 10
-56.776095
 20
0.591385
 30
0.0
  0
SPLINE
  5
111
100
AcDbEntity
  8
0
 62
7
100
AcDbSpline
 70
8
 71
3
 72
8
 73
4
 74
0
 40
0
 40
0
 40
0
 40
0
 40
1
 40
1
 40
1
 40
1
 10
-56.776095
 20
0.591385
 30
0.0
 10
-56.404814
 20
0.805744
 30
0.0
 10
-56.176095
 20
1.201897
 30
0.0
 10
-56.176095
 20
1.630614
 30
0.0
  0
SPLINE
  5
112
100
AcDbEntity
  8
0
 62
7
100
AcDbSpline
 70
8
 71
3
 72
8
 73
4
 74
0
 40
0
 40
0
 40
0
 40
0
 40
1
 40
1
 40
1
 40
1
 10
-100.107170
 20
-16.566232
 30
0.0
 10
-100.107170
 20
-16.137513
 30
0.0
 10
-100.335889
 20
-15.741362
 30
0.0
 10
-100.707170
 20
-15.527003
 30
0.0
  0
SPLINE
  5
113
100
AcDbEntity
  8
0
 62
7
100
AcDbSpline
 70
8
 71
3
 72
8
 73
4
 74
0
 40
0
 40
0
 40
0
 40
0
 40
1
 40
1
 40
1
 40
1
 10
-100.707170
 20
-15.527003
 30
0.0
 10
-101.078451
 20
-15.312644
 30
0.0
 10
-101.535888
 20
-15.312644
 30
0.0
 10
-101.907169
 20
-15.527003
 30
0.0
  0
SPLINE
  5
114
100
AcDbEntity
  8
0
 62
7
100
AcDbSpline
 70
8
 71
3
 72
8
 73
4
 74
0
 40
0
 40
0
 40
0
 40
0
 40
1
 40
1
 40
1
 40
1
 10
-101.907169
 20
-15.527003
 30
0.0
 10
-102.278449
 20
-15.741362
 30
0.0
 10
-102.507168
 20
-16.137513
 30
0.0
 10
-102.507168
 20
-16.566232
 30
0.0
  0
SPLINE
  5
115
100
AcDbEntity
  8
0
 62
7
100
AcDbSpline
 70
8
 71
3
 72
8
 73
4
 74
0
 40
0
 40
0
 40
0
 40
0
 40
1
 40
1
 40
1
 40
1
 10
-102.507168
 20
-16.566232
 30
0.0
 10
-102.507168
 20
-16.994950
 30
0.0
 10
-102.278449
 20
-17.391103
 30
0.0
 10
-101.907169
 20
-17.605462
 30
0.0
  0
SPLINE
  5
116
100
AcDbEntity
  8
0
 62
7
100
AcDbSpline
 70
8
 71
3
 72
8
 73
4
 74
0
 40
0
 40
0
 40
0
 40
0
 40
1
 40
1
 40
1
 40
1
 10
-101.907169
 20
-17.605462
 30
0.0
 10
-101.535888
 20
-17.819821
 30
0.0
 10
-101.078451
 20
-17.819821
 30
0.0
 10
-100.707170
 20
-17.605462
 30
0.0
  0
SPLINE
  5
117
100
AcDbEntity
  8
0
 62
7
100
AcDbSpline
 70
8
 71
3
 72
8
 73
4
 74
0
 40
0
 40
0
 40
0
 40
0
 40
1
 40
1
 40
1
 40
1
 10
-100.707170
 20
-17.605462
 30
0.0
 10
-100.335889
 20
-17.391103
 30
0.0
 10
-100.107170
 20
-16.994950
 30
0.0
 10
-100.107170
 20
-16.566232
 30
0.0
  0
SPLINE
  5
118
100
AcDbEntity
  8
0
 62
7
100
AcDbSpline
 70
8
 71
3
 72
8
 73
4
 74
0
 40
0
 40
0
 40
0
 40
0
 40
1
 40
1
 40
1
 40
1
 10
-65.474946
 20
60.124949
 30
0.0
 10
-65.474946
 20
60.553668
 30
0.0
 10
-65.703664
 20
60.949820
 30
0.0
 10
-66.074945
 20
61.164179
 30
0.0
  0
SPLINE
  5
119
100
AcDbEntity
  8
0
 62
7
100
AcDbSpline
 70
8
 71
3
 72
8
 73
4
 74
0
 40
0
 40
0
 40
0
 40
0
 40
1
 40
1
 40
1
 40
1
 10
-66.074945
 20
61.164179
 30
0.0
 10
-66.446225
 20
61.378538
 30
0.0
 10
-66.903662
 20
61.378538
 30
0.0
 10
-67.274943
 20
61.164179
 30
0.0
  0
SPLINE
  5
11a
100
AcDbEntity
  8
0
 62
7
100
AcDbSpline
 70
8
 71
3
 72
8
 73
4
 74
0
 40
0
 40
0
 40
0
 40
0
 40
1
 40
1
 40
1
 40
1
 10
-67.274943
 20
61.164179
 30
0.0
 10
-67.646224
 20
60.949820
 30
0.0
 10
-67.874943
 20
60.553668
 30
0.0
 10
-67.874943
 20
60.124949
 30
0.0
  0
SPLINE
  5
11b
100
AcDbEntity
  8
0
 62
7
100
AcDbSpline
 70
8
 71
3
 72
8
 73
4
 74
0
 40
0
 40
0
 40
0
 40
0
 40
1
 40
1
 40
1
 40
1
 10
-67.874943
 20
60.124949
 30
0.0
 10
-67.874943
 20
59.696230
 30
0.0
 10
-67.646224
 20
59.300078
 30
0.0
 10
-67.274943
 20
59.085720
 30
0.0
  0
SPLINE
  5
11c
100
AcDbEntity
  8
0
 62
7
100
AcDbSpline
 70
8
 71
3
 72
8
 73
4
 74
0
 40
0
 40
0
 40
0
 40
0
 40
1
 40
1
 40
1
 40
1
 10
-67.274943
 20
59.085720
 30
0.0
 10
-66.903662
 20
58.871361
 30
0.0
 10
-66.446225
 20
58.871361
 30
0.0
 10
-66.074945
 20
59.085720
 30
0.0
  0
SPLINE
  5
11d
100
AcDbEntity
  8
0
 62
7
100
AcDbSpline
 70
8
 71
3
 72
8
 73
4
 74
0
 40
0
 40
0
 40
0
 40
0
 40
1
 40
1
 40
1
 40
1
 10
-66.074945
 20
59.085720
 30
0.0
 10
-65.703664
 20
59.300078
 30
0.0
 10
-65.474946
 20
59.696230
 30
0.0
 10
-65.474946
 20
60.124949
 30
0.0
  0
SPLINE
  5
11e
100
AcDbEntity
  8
0
 62
7
100
AcDbSpline
 70
8
 71
3
 72
8
 73
4
 74
0
 40
0
 40
0
 40
0
 40
0
 40
1
 40
1
 40
1
 40
1
 10
-44.894563
 20
25.447282
 30
0.0
 10
-44.894563
 20
26.359273
 30
0.0
 10
-45.381104
 20
27.201987
 30
0.0
 10
-46.170912
 20
27.657983
 30
0.0
  0
SPLINE
  5
11f
100
AcDbEntity
  8
0
 62
7
100
AcDbSpline
 70
8
 71
3
 72
8
 73
4
 74
0
 40
0
 40
0
 40
0
 40
0
 40
1
 40
1
 40
1
 40
1
 10
-46.170912
 20
27.657983
 30
0.0
 10
-46.960719
 20
28.113979
 30
0.0
 10
-47.933803
 20
28.113979
 30
0.0
 10
-48.723609
 20
27.657983
 30
0.0
  0
SPLINE
  5
120
100
AcDbEntity
  8
0
 62
7
100
AcDbSpline
 70
8
 71
3
 72
8
 73
4
 74
0
 40
0
 40
0
 40
0
 40
0
 40
1
 40
1
 40
1
 40
1
 10
-48.723609
 20
27.657983
 30
0.0
 10
-49.513417
 20
27.201987
 30
0.0
 10
-49.999959
 20
26.359273
 30
0.0
 10
-49.999959
 20
25.447282
 30
0.0
  0
SPLINE
  5
121
100
AcDbEntity
  8
0
 62
7
100
AcDbSpline
 70
8
 71
3
 72
8
 73
4
 74
0
 40
0
 40
0
 40
0
 40
0
 40
1
 40
1
 40
1
 40
1
 10
-49.999959
 20
25.447282
 30
0.0
 10
-49.999959
 20
24.535291
 30
0.0
 10
-49.513417
 20
23.692576
 30
0.0
 10
-48.723609
 20
23.236581
 30
0.0
  0
SPLINE
  5
122
100
AcDbEntity
  8
0
 62
7
100
AcDbSpline
 70
8
 71
3
 72
8
 73
4
 74
0
 40
0
 40
0
 40
0
 40
0
 40
1
 40
1
 40
1
 40
1
 10
-48.723609
 20
23.236581
 30
0.0
 10
-47.933803
 20
22.780586
 30
0.0
 10
-46.960719
 20
22.780586
 30
0.0
 10
-46.170912
 20
23.236581
 30
0.0
  0
SPLINE
  5
123
100
AcDbEntity
  8
0
 62
7
100
AcDbSpline
 70
8
 71
3
 72
8
 73
4
 74
0
 40
0
 40
0
 40
0
 40
0
 40
1
 40
1
 40
1
 40
1
 10
-46.170912
 20
23.236581
 30
0.0
 10
-45.381104
 20
23.692576
 30
0.0
 10
-44.894563
 20
24.535291
 30
0.0
 10
-44.894563
 20
25.447282
 30
0.0
  0
SPLINE
  5
124
100
AcDbEntity
  8
0
 62
7
100
AcDbSpline
 70
8
 71
3
 72
8
 73
4
 74
0
 40
0
 40
0
 40
0
 40
0
 40
1
 40
1
 40
1
 40
1
 10
-74.894536
 20
25.447282
 30
0.0
 10
-74.894536
 20
26.359273
 30
0.0
 10
-75.381077
 20
27.201987
 30
0.0
 10
-76.170885
 20
27.657983
 30
0.0
  0
SPLINE
  5
125
100
AcDbEntity
  8
0
 62
7
100
AcDbSpline
 70
8
 71
3
 72
8
 73
4
 74
0
 40
0
 40
0
 40
0
 40
0
 40
1
 40
1
 40
1
 40
1
 10
-76.170885
 20
27.657983
 30
0.0
 10
-76.960691
 20
28.113979
 30
0.0
 10
-77.933775
 20
28.113979
 30
0.0
 10
-78.723583
 20
27.657983
 30
0.0
  0
SPLINE
  5
126
100
AcDbEntity
  8
0
 62
7
100
AcDbSpline
 70
8
 71
3
 72
8
 73
4
 74
0
 40
0
 40
0
 40
0
 40
0
 40
1
 40
1
 40
1
 40
1
 10
-78.723583
 20
27.657983
 30
0.0
 10
-79.513391
 20
27.201987
 30
0.0
 10
-79.999932
 20
26.359273
 30
0.0
 10
-79.999932
 20
25.447282
 30
0.0
  0
SPLINE
  5
127
100
AcDbEntity
  8
0
 62
7
100
AcDbSpline
 70
8
 71
3
 72
8
 73
4
 74
0
 40
0
 40
0
 40
0
 40
0
 40
1
 40
1
 40
1
 40
1
 10
-79.999932
 20
25.447282
 30
0.0
 10
-79.999932
 20
24.535291
 30
0.0
 10
-79.513391
 20
23.692576
 30
0.0
 10
-78.723583
 20
23.236581
 30
0.0
  0
SPLINE
  5
128
100
AcDbEntity
  8
0
 62
7
100
AcDbSpline
 70
8
 71
3
 72
8
 73
4
 74
0
 40
0
 40
0
 40
0
 40
0
 40
1
 40
1
 40
1
 40
1
 10
-78.723583
 20
23.236581
 30
0.0
 10
-77.933775
 20
22.780586
 30
0.0
 10
-76.960691
 20
22.780586
 30
0.0
 10
-76.170885
 20
23.236581
 30
0.0
  0
SPLINE
  5
129
100
AcDbEntity
  8
0
 62
7
100
AcDbSpline
 70
8
 71
3
 72
8
 73
4
 74
0
 40
0
 40
0
 40
0
 40
0
 40
1
 40
1
 40
1
 40
1
 10
-76.170885
 20
23.236581
 30
0.0
 10
-75.381077
 20
23.692576
 30
0.0
 10
-74.894536
 20
24.535291
 30
0.0
 10
-74.894536
 20
25.447282
 30
0.0
  0
SPLINE
  5
12a
100
AcDbEntity
  8
0
 62
7
100
AcDbSpline
 70
8
 71
3
 72
8
 73
4
 74
0
 40
0
 40
0
 40
0
 40
0
 40
1
 40
1
 40
1
 40
1
 10
-27.436347
 20
-0.252284
 30
0.0
 10
-27.436347
 20
2.427205
 30
0.0
 10
-28.865839
 20
4.903157
 30
0.0
 10
-31.186344
 20
6.242901
 30
0.0
  0
SPLINE
  5
12b
100
AcDbEntity
  8
0
 62
7
100
AcDbSpline
 70
8
 71
3
 72
8
 73
4
 74
0
 40
0
 40
0
 40
0
 40
0
 40
1
 40
1
 40
1
 40
1
 10
-31.186344
 20
6.242901
 30
0.0
 10
-33.506851
 20
7.582647
 30
0.0
 10
-36.365832
 20
7.582647
 30
0.0
 10
-38.686337
 20
6.242901
 30
0.0
  0
SPLINE
  5
12c
100
AcDbEntity
  8
0
 62
7
100
AcDbSpline
 70
8
 71
3
 72
8
 73
4
 74
0
 40
0
 40
0
 40
0
 40
0
 40
1
 40
1
 40
1
 40
1
 10
-38.686337
 20
6.242901
 30
0.0
 10
-41.006844
 20
4.903157
 30
0.0
 10
-42.436334
 20
2.427205
 30
0.0
 10
-42.436334
 20
-0.252284
 30
0.0
  0
SPLINE
  5
12d
100
AcDbEntity
  8
0
 62
7
100
AcDbSpline
 70
8
 71
3
 72
8
 73
4
 74
0
 40
0
 40
0
 40
0
 40
0
 40
1
 40
1
 40
1
 40
1
 10
-42.436334
 20
-0.252284
 30
0.0
 10
-42.436334
 20
-2.931773
 30
0.0
 10
-41.006844
 20
-5.407724
 30
0.0
 10
-38.686337
 20
-6.747469
 30
0.0
  0
SPLINE
  5
12e
100
AcDbEntity
  8
0
 62
7
100
AcDbSpline
 70
8
 71
3
 72
8
 73
4
 74
0
 40
0
 40
0
 40
0
 40
0
 40
1
 40
1
 40
1
 40
1
 10
-38.686337
 20
-6.747469
 30
0.0
 10
-36.365832
 20
-8.087215
 30
0.0
 10
-33.506851
 20
-8.087215
 30
0.0
 10
-31.186344
 20
-6.747469
 30
0.0
  0
SPLINE
  5
12f
100
AcDbEntity
  8
0
 62
7
100
AcDbSpline
 70
8
 71
3
 72
8
 73
4
 74
0
 40
0
 40
0
 40
0
 40
0
 40
1
 40
1
 40
1
 40
1
 10
-31.186344
 20
-6.747469
 30
0.0
 10
-28.865839
 20
-5.407724
 30
0.0
 10
-27.436347
 20
-2.931773
 30
0.0
 10
-27.436347
 20
-0.252284
 30
0.0
  0
SPLINE
  5
130
100
AcDbEntity
  8
0
 62
7
100
AcDbSpline
 70
8
 71
3
 72
8
 73
4
 74
0
 40
0
 40
0
 40
0
 40
0
 40
1
 40
1
 40
1
 40
1
 10
17.946045
 20
27.504256
 30
0.0
 10
17.947051
 20
30.184419
 30
0.0
 10
16.517780
 20
32.661419
 30
0.0
 10
14.196862
 20
34.001789
 30
0.0
  0
SPLINE
  5
131
100
AcDbEntity
  8
0
 62
7
100
AcDbSpline
 70
8
 71
3
 72
8
 73
4
 74
0
 40
0
 40
0
 40
0
 40
0
 40
1
 40
1
 40
1
 40
1
 10
14.196862
 20
34.001789
 30
0.0
 10
11.875943
 20
35.342161
 30
0.0
 10
9.016161
 20
35.342161
 30
0.0
 10
6.695242
 20
34.001789
 30
0.0
  0
SPLINE
  5
132
100
AcDbEntity
  8
0
 62
7
100
AcDbSpline
 70
8
 71
3
 72
8
 73
4
 74
0
 40
0
 40
0
 40
0
 40
0
 40
1
 40
1
 40
1
 40
1
 10
6.695242
 20
34.001789
 30
0.0
 10
4.374323
 20
32.661419
 30
0.0
 10
2.945052
 20
30.184419
 30
0.0
 10
2.946059
 20
27.504256
 30
0.0
  0
SPLINE
  5
133
100
AcDbEntity
  8
0
 62
7
100
AcDbSpline
 70
8
 71
3
 72
8
 73
4
 74
0
 40
0
 40
0
 40
0
 40
0
 40
1
 40
1
 40
1
 40
1
 10
2.946059
 20
27.504256
 30
0.0
 10
2.945052
 20
24.824096
 30
0.0
 10
4.374323
 20
22.347096
 30
0.0
 10
6.695242
 20
21.006724
 30
0.0
  0
SPLINE
  5
134
100
AcDbEntity
  8
0
 62
7
100
AcDbSpline
 70
8
 71
3
 72
8
 73
4
 74
0
 40
0
 40
0
 40
0
 40
0
 40
1
 40
1
 40
1
 40
1
 10
6.695242
 20
21.006724
 30
0.0
 10
9.016161
 20
19.666354
 30
0.0
 10
11.875943
 20
19.666354
 30
0.0
 10
14.196862
 20
21.006724
 30
0.0
  0
SPLINE
  5
135
100
AcDbEntity
  8
0
 62
7
100
AcDbSpline
 70
8
 71
3
 72
8
 73
4
 74
0
 40
0
 40
0
 40
0
 40
0
 40
1
 40
1
 40
1
 40
1
 10
14.196862
 20
21.006724
 30
0.0
 10
16.517780
 20
22.347096
 30
0.0
 10
17.947051
 20
24.824096
 30
0.0
 10
17.946045
 20
27.504256
 30
0.0
  0
SPLINE
  5
136
100
AcDbEntity
  8
0
 62
7
100
AcDbSpline
 70
8
 71
3
 72
8
 73
4
 74
0
 40
0
 40
0
 40
0
 40
0
 40
1
 40
1
 40
1
 40
1
 10
-71.900492
 20
-8.112043
 30
0.0
 10
-71.900492
 20
-5.432553
 30
0.0
 10
-73.329983
 20
-2.956602
 30
0.0
 10
-75.650489
 20
-1.616857
 30
0.0
  0
SPLINE
  5
137
100
AcDbEntity
  8
0
 62
7
100
AcDbSpline
 70
8
 71
3
 72
8
 73
4
 74
0
 40
0
 40
0
 40
0
 40
0
 40
1
 40
1
 40
1
 40
1
 10
-75.650489
 20
-1.616857
 30
0.0
 10
-77.970994
 20
-0.277112
 30
0.0
 10
-80.829975
 20
-0.277112
 30
0.0
 10
-83.150483
 20
-1.616857
 30
0.0
  0
SPLINE
  5
138
100
AcDbEntity
  8
0
 62
7
100
AcDbSpline
 70
8
 71
3
 72
8
 73
4
 74
0
 40
0
 40
0
 40
0
 40
0
 40
1
 40
1
 40
1
 40
1
 10
-83.150483
 20
-1.616857
 30
0.0
 10
-85.470988
 20
-2.956602
 30
0.0
 10
-86.900479
 20
-5.432553
 30
0.0
 10
-86.900479
 20
-8.112043
 30
0.0
  0
SPLINE
  5
139
100
AcDbEntity
  8
0
 62
7
100
AcDbSpline
 70
8
 71
3
 72
8
 73
4
 74
0
 40
0
 40
0
 40
0
 40
0
 40
1
 40
1
 40
1
 40
1
 10
-86.900479
 20
-8.112043
 30
0.0
 10
-86.900479
 20
-10.791533
 30
0.0
 10
-85.470988
 20
-13.267483
 30
0.0
 10
-83.150483
 20
-14.607228
 30
0.0
  0
SPLINE
  5
13a
100
AcDbEntity
  8
0
 62
7
100
AcDbSpline
 70
8
 71
3
 72
8
 73
4
 74
0
 40
0
 40
0
 40
0
 40
0
 40
1
 40
1
 40
1
 40
1
 10
-83.150483
 20
-14.607228
 30
0.0
 10
-80.829975
 20
-15.946974
 30
0.0
 10
-77.970994
 20
-15.946974
 30
0.0
 10
-75.650489
 20
-14.607228
 30
0.0
  0
SPLINE
  5
13b
100
AcDbEntity
  8
0
 62
7
100
AcDbSpline
 70
8
 71
3
 72
8
 73
4
 74
0
 40
0
 40
0
 40
0
 40
0
 40
1
 40
1
 40
1
 40
1
 10
-75.650489
 20
-14.607228
 30
0.0
 10
-73.329983
 20
-13.267483
 30
0.0
 10
-71.900492
 20
-10.791533
 30
0.0
 10
-71.900492
 20
-8.112043
 30
0.0
  0
SPLINE
  5
13c
100
AcDbEntity
  8
0
 62
7
100
AcDbSpline
 70
8
 71
3
 72
8
 73
4
 74
0
 40
0
 40
0
 40
0
 40
0
 40
1
 40
1
 40
1
 40
1
 10
-55.063911
 20
41.606100
 30
0.0
 10
-55.063911
 20
44.285590
 30
0.0
 10
-56.493400
 20
46.761541
 30
0.0
 10
-58.813905
 20
48.101285
 30
0.0
  0
SPLINE
  5
13d
100
AcDbEntity
  8
0
 62
7
100
AcDbSpline
 70
8
 71
3
 72
8
 73
4
 74
0
 40
0
 40
0
 40
0
 40
0
 40
1
 40
1
 40
1
 40
1
 10
-58.813905
 20
48.101285
 30
0.0
 10
-61.134413
 20
49.441030
 30
0.0
 10
-63.993394
 20
49.441030
 30
0.0
 10
-66.313899
 20
48.101285
 30
0.0
  0
SPLINE
  5
13e
100
AcDbEntity
  8
0
 62
7
100
AcDbSpline
 70
8
 71
3
 72
8
 73
4
 74
0
 40
0
 40
0
 40
0
 40
0
 40
1
 40
1
 40
1
 40
1
 10
-66.313899
 20
48.101285
 30
0.0
 10
-68.634406
 20
46.761541
 30
0.0
 10
-70.063896
 20
44.285590
 30
0.0
 10
-70.063896
 20
41.606100
 30
0.0
  0
SPLINE
  5
13f
100
AcDbEntity
  8
0
 62
7
100
AcDbSpline
 70
8
 71
3
 72
8
 73
4
 74
0
 40
0
 40
0
 40
0
 40
0
 40
1
 40
1
 40
1
 40
1
 10
-70.063896
 20
41.606100
 30
0.0
 10
-70.063896
 20
38.926610
 30
0.0
 10
-68.634406
 20
36.450660
 30
0.0
 10
-66.313899
 20
35.110915
 30
0.0
  0
SPLINE
  5
140
100
AcDbEntity
  8
0
 62
7
100
AcDbSpline
 70
8
 71
3
 72
8
 73
4
 74
0
 40
0
 40
0
 40
0
 40
0
 40
1
 40
1
 40
1
 40
1
 10
-66.313899
 20
35.110915
 30
0.0
 10
-63.993394
 20
33.771170
 30
0.0
 10
-61.134413
 20
33.771170
 30
0.0
 10
-58.813905
 20
35.110915
 30
0.0
  0
SPLINE
  5
141
100
AcDbEntity
  8
0
 62
7
100
AcDbSpline
 70
8
 71
3
 72
8
 73
4
 74
0
 40
0
 40
0
 40
0
 40
0
 40
1
 40
1
 40
1
 40
1
 10
-58.813905
 20
35.110915
 30
0.0
 10
-56.493400
 20
36.450660
 30
0.0
 10
-55.063911
 20
38.926610
 30
0.0
 10
-55.063911
 20
41.606100
 30
0.0
  0
SPLINE
  5
142
100
AcDbEntity
  8
0
 62
7
100
AcDbSpline
 70
8
 71
3
 72
8
 73
4
 74
0
 40
0
 40
0
 40
0
 40
0
 40
1
 40
1
 40
1
 40
1
 10
-14.894587
 20
25.447282
 30
0.0
 10
-14.894587
 20
26.359273
 30
0.0
 10
-15.381129
 20
27.201987
 30
0.0
 10
-16.170935
 20
27.657983
 30
0.0
  0
SPLINE
  5
143
100
AcDbEntity
  8
0
 62
7
100
AcDbSpline
 70
8
 71
3
 72
8
 73
4
 74
0
 40
0
 40
0
 40
0
 40
0
 40
1
 40
1
 40
1
 40
1
 10
-16.170935
 20
27.657983
 30
0.0
 10
-16.960743
 20
28.113979
 30
0.0
 10
-17.933826
 20
28.113979
 30
0.0
 10
-18.723634
 20
27.657983
 30
0.0
  0
SPLINE
  5
144
100
AcDbEntity
  8
0
 62
7
100
AcDbSpline
 70
8
 71
3
 72
8
 73
4
 74
0
 40
0
 40
0
 40
0
 40
0
 40
1
 40
1
 40
1
 40
1
 10
-18.723634
 20
27.657983
 30
0.0
 10
-19.513442
 20
27.201987
 30
0.0
 10
-19.999983
 20
26.359273
 30
0.0
 10
-19.999983
 20
25.447282
 30
0.0
  0
SPLINE
  5
145
100
AcDbEntity
  8
0
 62
7
100
AcDbSpline
 70
8
 71
3
 72
8
 73
4
 74
0
 40
0
 40
0
 40
0
 40
0
 40
1
 40
1
 40
1
 40
1
 10
-19.999983
 20
25.447282
 30
0.0
 10
-19.999983
 20
24.535291
 30
0.0
 10
-19.513442
 20
23.692575
 30
0.0
 10
-18.723634
 20
23.236581
 30
0.0
  0
SPLINE
  5
146
100
AcDbEntity
  8
0
 62
7
100
AcDbSpline
 70
8
 71
3
 72
8
 73
4
 74
0
 40
0
 40
0
 40
0
 40
0
 40
1
 40
1
 40
1
 40
1
 10
-18.723634
 20
23.236581
 30
0.0
 10
-17.933826
 20
22.780586
 30
0.0
 10
-16.960743
 20
22.780586
 30
0.0
 10
-16.170935
 20
23.236581
 30
0.0
  0
SPLINE
  5
147
100
AcDbEntity
  8
0
 62
7
100
AcDbSpline
 70
8
 71
3
 72
8
 73
4
 74
0
 40
0
 40
0
 40
0
 40
0
 40
1
 40
1
 40
1
 40
1
 10
-16.170935
 20
23.236581
 30
0.0
 10
-15.381129
 20
23.692575
 30
0.0
 10
-14.894587
 20
24.535291
 30
0.0
 10
-14.894587
 20
25.447282
 30
0.0
  0
SPLINE
  5
148
100
AcDbEntity
  8
0
 62
7
100
AcDbSpline
 70
8
 71
3
 72
8
 73
4
 74
0
 40
0
 40
0
 40
0
 40
0
 40
1
 40
1
 40
1
 40
1
 10
-11.963647
 20
0.250000
 30
0.0
 10
-11.963647
 20
0.678719
 30
0.0
 10
-12.192366
 20
1.074871
 30
0.0
 10
-12.563646
 20
1.289230
 30
0.0
  0
SPLINE
  5
149
100
AcDbEntity
  8
0
 62
7
100
AcDbSpline
 70
8
 71
3
 72
8
 73
4
 74
0
 40
0
 40
0
 40
0
 40
0
 40
1
 40
1
 40
1
 40
1
 10
-12.563646
 20
1.289230
 30
0.0
 10
-12.934926
 20
1.503589
 30
0.0
 10
-13.392364
 20
1.503589
 30
0.0
 10
-13.763645
 20
1.289230
 30
0.0
  0
SPLINE
  5
14a
100
AcDbEntity
  8
0
 62
7
100
AcDbSpline
 70
8
 71
3
 72
8
 73
4
 74
0
 40
0
 40
0
 40
0
 40
0
 40
1
 40
1
 40
1
 40
1
 10
-13.763645
 20
1.289230
 30
0.0
 10
-14.134926
 20
1.074871
 30
0.0
 10
-14.363645
 20
0.678719
 30
0.0
 10
-14.363645
 20
0.250000
 30
0.0
  0
SPLINE
  5
14b
100
AcDbEntity
  8
0
 62
7
100
AcDbSpline
 70
8
 71
3
 72
8
 73
4
 74
0
 40
0
 40
0
 40
0
 40
0
 40
1
 40
1
 40
1
 40
1
 10
-14.363645
 20
0.250000
 30
0.0
 10
-14.363645
 20
-0.178719
 30
0.0
 10
-14.134926
 20
-0.574871
 30
0.0
 10
-13.763645
 20
-0.789230
 30
0.0
  0
SPLINE
  5
14c
100
AcDbEntity
  8
0
 62
7
100
AcDbSpline
 70
8
 71
3
 72
8
 73
4
 74
0
 40
0
 40
0
 40
0
 40
0
 40
1
 40
1
 40
1
 40
1
 10
-13.763645
 20
-0.789230
 30
0.0
 10
-13.392364
 20
-1.003590
 30
0.0
 10
-12.934926
 20
-1.003590
 30
0.0
 10
-12.563646
 20
-0.789230
 30
0.0
  0
SPLINE
  5
14d
100
AcDbEntity
  8
0
 62
7
100
AcDbSpline
 70
8
 71
3
 72
8
 73
4
 74
0
 40
0
 40
0
 40
0
 40
0
 40
1
 40
1
 40
1
 40
1
 10
-12.563646
 20
-0.789230
 30
0.0
 10
-12.192366
 20
-0.574871
 30
0.0
 10
-11.963647
 20
-0.178719
 30
0.0
 10
-11.963647
 20
0.250000
 30
0.0
  0
SPLINE
  5
14e
100
AcDbEntity
  8
0
 62
7
100
AcDbSpline
 70
8
 71
3
 72
8
 73
4
 74
0
 40
0
 40
0
 40
0
 40
0
 40
1
 40
1
 40
1
 40
1
 10
10.724991
 20
47.624951
 30
0.0
 10
10.724991
 20
48.053668
 30
0.0
 10
10.496272
 20
48.449819
 30
0.0
 10
10.124991
 20
48.664179
 30
0.0
  0
SPLINE
  5
14f
100
AcDbEntity
  8
0
 62
7
100
AcDbSpline
 70
8
 71
3
 72
8
 73
4
 74
0
 40
0
 40
0
 40
0
 40
0
 40
1
 40
1
 40
1
 40
1
 10
10.124991
 20
48.664179
 30
0.0
 10
9.753710
 20
48.878538
 30
0.0
 10
9.296273
 20
48.878538
 30
0.0
 10
8.924993
 20
48.664179
 30
0.0
  0
SPLINE
  5
150
100
AcDbEntity
  8
0
 62
7
100
AcDbSpline
 70
8
 71
3
 72
8
 73
4
 74
0
 40
0
 40
0
 40
0
 40
0
 40
1
 40
1
 40
1
 40
1
 10
8.924993
 20
48.664179
 30
0.0
 10
8.553712
 20
48.449819
 30
0.0
 10
8.324994
 20
48.053668
 30
0.0
 10
8.324994
 20
47.624951
 30
0.0
  0
SPLINE
  5
151
100
AcDbEntity
  8
0
 62
7
100
AcDbSpline
 70
8
 71
3
 72
8
 73
4
 74
0
 40
0
 40
0
 40
0
 40
0
 40
1
 40
1
 40
1
 40
1
 10
8.324994
 20
47.624951
 30
0.0
 10
8.324994
 20
47.196232
 30
0.0
 10
8.553712
 20
46.800080
 30
0.0
 10
8.924993
 20
46.585720
 30
0.0
  0
SPLINE
  5
152
100
AcDbEntity
  8
0
 62
7
100
AcDbSpline
 70
8
 71
3
 72
8
 73
4
 74
0
 40
0
 40
0
 40
0
 40
0
 40
1
 40
1
 40
1
 40
1
 10
8.924993
 20
46.585720
 30
0.0
 10
9.296273
 20
46.371361
 30
0.0
 10
9.753710
 20
46.371361
 30
0.0
 10
10.124991
 20
46.585720
 30
0.0
  0
SPLINE
  5
153
100
AcDbEntity
  8
0
 62
7
100
AcDbSpline
 70
8
 71
3
 72
8
 73
4
 74
0
 40
0
 40
0
 40
0
 40
0
 40
1
 40
1
 40
1
 40
1
 10
10.124991
 20
46.585720
 30
0.0
 10
10.496272
 20
46.800080
 30
0.0
 10
10.724991
 20
47.196232
 30
0.0
 10
10.724991
 20
47.624951
 30
0.0
  0
SPLINE
  5
154
100
AcDbEntity
  8
0
 62
7
100
AcDbSpline
 70
8
 71
3
 72
8
 73
4
 74
0
 40
0
 40
0
 40
0
 40
0
 40
1
 40
1
 40
1
 40
1
 10
-109.419806
 20
54.019619
 30
0.0
 10
-109.291550
 20
54.076865
 30
0.0
 10
-109.152673
 20
54.106452
 30
0.0
 10
-109.012221
 20
54.106452
 30
0.0
  0
SPLINE
  5
155
100
AcDbEntity
  8
0
 62
7
100
AcDbSpline
 70
8
 71
3
 72
8
 73
4
 74
0
 40
0
 40
0
 40
0
 40
0
 40
1
 40
1
 40
1
 40
1
 10
-87.474926
 20
54.106452
 30
0.0
 10
-86.922642
 20
54.106452
 30
0.0
 10
-86.474928
 20
54.554167
 30
0.0
 10
-86.474928
 20
55.106451
 30
0.0
  0
SPLINE
  5
156
100
AcDbEntity
  8
0
 62
7
100
AcDbSpline
 70
8
 71
3
 72
8
 73
4
 74
0
 40
0
 40
0
 40
0
 40
0
 40
1
 40
1
 40
1
 40
1
 10
-86.474928
 20
61.426167
 30
0.0
 10
-86.474928
 20
61.879547
 30
0.0
 10
-86.169910
 20
62.276198
 30
0.0
 10
-85.731735
 20
62.392627
 30
0.0
  0
SPLINE
  5
157
100
AcDbEntity
  8
0
 62
7
100
AcDbSpline
 70
8
 71
3
 72
8
 73
4
 74
0
 40
0
 40
0
 40
0
 40
0
 40
1
 40
1
 40
1
 40
1
 10
-85.731735
 20
62.392627
 30
0.0
 10
-54.776080
 20
70.618118
 30
0.0
 10
-22.045815
 20
69.185448
 30
0.0
 10
8.072731
 20
58.286615
 30
0.0
  0
SPLINE
  5
158
100
AcDbEntity
  8
0
 62
7
100
AcDbSpline
 70
8
 71
3
 72
8
 73
4
 74
0
 40
0
 40
0
 40
0
 40
0
 40
1
 40
1
 40
1
 40
1
 10
8.072731
 20
58.286615
 30
0.0
 10
9.251158
 20
57.860183
 30
0.0
 10
10.424442
 20
57.419666
 30
0.0
 10
11.592330
 20
56.965159
 30
0.0
  0
SPLINE
  5
159
100
AcDbEntity
  8
0
 62
7
100
AcDbSpline
 70
8
 71
3
 72
8
 73
4
 74
0
 40
0
 40
0
 40
0
 40
0
 40
1
 40
1
 40
1
 40
1
 10
11.592330
 20
56.965159
 30
0.0
 10
17.570141
 20
54.638775
 30
0.0
 10
23.399864
 20
51.948467
 30
0.0
 10
29.048762
 20
48.909346
 30
0.0
  0
SPLINE
  5
15a
100
AcDbEntity
  8
0
 62
7
100
AcDbSpline
 70
8
 71
3
 72
8
 73
4
 74
0
 40
0
 40
0
 40
0
 40
0
 40
1
 40
1
 40
1
 40
1
 10
29.048762
 20
48.909346
 30
0.0
 10
29.372847
 20
48.734987
 30
0.0
 10
29.574976
 20
48.396718
 30
0.0
 10
29.574976
 20
48.028708
 30
0.0
  0
SPLINE
  5
15b
100
AcDbEntity
  8
0
 62
7
100
AcDbSpline
 70
8
 71
3
 72
8
 73
4
 74
0
 40
0
 40
0
 40
0
 40
0
 40
1
 40
1
 40
1
 40
1
 10
29.574976
 20
-9.524991
 30
0.0
 10
29.574976
 20
-9.790208
 30
0.0
 10
29.469619
 20
-10.044562
 30
0.0
 10
29.282083
 20
-10.232098
 30
0.0
  0
SPLINE
  5
15c
100
AcDbEntity
  8
0
 62
7
100
AcDbSpline
 70
8
 71
3
 72
8
 73
4
 74
0
 40
0
 40
0
 40
0
 40
0
 40
1
 40
1
 40
1
 40
1
 10
29.282083
 20
-10.232098
 30
0.0
 10
29.094546
 20
-10.419634
 30
0.0
 10
28.840192
 20
-10.524991
 30
0.0
 10
28.574976
 20
-10.524991
 30
0.0
  0
LWPOLYLINE
  5
15d
100
AcDbEntity
  8
0
 62
7
100
AcDbPolyline
 90
2
 70
0
 10
-109.012221
 20
54.106452
 30
0.0
 10
-87.474926
 20
54.106452
 30
0.0
  0
SPLINE
  5
15e
100
AcDbEntity
  8
0
 62
7
100
AcDbSpline
 70
8
 71
3
 72
8
 73
4
 74
0
 40
0
 40
0
 40
0
 40
0
 40
1
 40
1
 40
1
 40
1
 10
-14.810879
 20
-10.524991
 30
0.0
 10
-15.363164
 20
-10.524991
 30
0.0
 10
-15.810879
 20
-10.972706
 30
0.0
 10
-15.810879
 20
-11.524991
 30
0.0
  0
LWPOLYLINE
  5
15f
100
AcDbEntity
  8
0
 62
7
100
AcDbPolyline
 90
2
 70
0
 10
-86.474928
 20
55.106451
 30
0.0
 10
-86.474928
 20
61.426167
 30
0.0
  0
SPLINE
  5
160
100
AcDbEntity
  8
0
 62
7
100
AcDbSpline
 70
8
 71
3
 72
8
 73
4
 74
0
 40
0
 40
0
 40
0
 40
0
 40
1
 40
1
 40
1
 40
1
 10
-15.810879
 20
-17.094813
 30
0.0
 10
-15.810879
 20
-17.647098
 30
0.0
 10
-16.258592
 20
-18.094812
 30
0.0
 10
-16.810877
 20
-18.094813
 30
0.0
  0
LWPOLYLINE
  5
161
100
AcDbEntity
  8
0
 62
7
100
AcDbPolyline
 90
2
 70
0
 10
29.574976
 20
48.028708
 30
0.0
 10
29.574976
 20
-9.524991
 30
0.0
  0
SPLINE
  5
162
100
AcDbEntity
  8
0
 62
7
100
AcDbSpline
 70
8
 71
3
 72
8
 73
4
 74
0
 40
0
 40
0
 40
0
 40
0
 40
1
 40
1
 40
1
 40
1
 10
-45.385853
 20
-18.094813
 30
0.0
 10
-64.308917
 20
-18.094813
 30
0.0
 10
-82.456941
 20
-25.611971
 30
0.0
 10
-95.837567
 20
-38.992597
 30
0.0
  0
LWPOLYLINE
  5
163
100
AcDbEntity
  8
0
 62
7
100
AcDbPolyline
 90
2
 70
0
 10
28.574976
 20
-10.524991
 30
0.0
 10
-14.810879
 20
-10.524991
 30
0.0
  0
SPLINE
  5
164
100
AcDbEntity
  8
0
 62
7
100
AcDbSpline
 70
8
 71
3
 72
8
 73
4
 74
0
 40
0
 40
0
 40
0
 40
0
 40
1
 40
1
 40
1
 40
1
 10
-102.572753
 20
-45.727783
 30
0.0
 10
-102.963277
 20
-46.118307
 30
0.0
 10
-103.596442
 20
-46.118307
 30
0.0
 10
-103.986966
 20
-45.727783
 30
0.0
  0
LWPOLYLINE
  5
165
100
AcDbEntity
  8
0
 62
7
100
AcDbPolyline
 90
2
 70
0
 10
-15.810879
 20
-11.524991
 30
0.0
 10
-15.810879
 20
-17.094813
 30
0.0
  0
SPLINE
  5
166
100
AcDbEntity
  8
0
 62
7
100
AcDbSpline
 70
8
 71
3
 72
8
 73
4
 74
0
 40
0
 40
0
 40
0
 40
0
 40
1
 40
1
 40
1
 40
1
 10
-130.927711
 20
-18.787038
 30
0.0
 10
-131.318235
 20
-18.396514
 30
0.0
 10
-131.318235
 20
-17.763349
 30
0.0
 10
-130.927711
 20
-17.372825
 30
0.0
  0
LWPOLYLINE
  5
167
100
AcDbEntity
  8
0
 62
7
100
AcDbPolyline
 90
2
 70
0
 10
-16.810877
 20
-18.094813
 30
0.0
 10
-45.385853
 20
-18.094813
 30
0.0
  0
SPLINE
  5
168
100
AcDbEntity
  8
0
 62
7
100
AcDbSpline
 70
8
 71
3
 72
8
 73
4
 74
0
 40
0
 40
0
 40
0
 40
0
 40
1
 40
1
 40
1
 40
1
 10
-124.192525
 20
-10.637639
 30
0.0
 10
-122.690162
 20
-9.135275
 30
0.0
 10
-121.145143
 20
-7.676179
 30
0.0
 10
-119.559363
 20
-6.262141
 30
0.0
  0
SPLINE
  5
169
100
AcDbEntity
  8
0
 62
7
100
AcDbSpline
 70
8
 71
3
 72
8
 73
4
 74
0
 40
0
 40
0
 40
0
 40
0
 40
1
 40
1
 40
1
 40
1
 10
-119.559363
 20
-6.262141
 30
0.0
 10
-119.346582
 20
-6.072403
 30
0.0
 10
-119.224901
 20
-5.800865
 30
0.0
 10
-119.224900
 20
-5.515774
 30
0.0
  0
LWPOLYLINE
  5
16a
100
AcDbEntity
  8
0
 62
7
100
AcDbPolyline
 90
2
 70
0
 10
-95.837567
 20
-38.992597
 30
0.0
 10
-102.572753
 20
-45.727783
 30
0.0
  0
SPLINE
  5
16b
100
AcDbEntity
  8
0
 62
7
100
AcDbSpline
 70
8
 71
3
 72
8
 73
4
 74
0
 40
0
 40
0
 40
0
 40
0
 40
1
 40
1
 40
1
 40
1
 10
-119.224900
 20
48.626352
 30
0.0
 10
-119.224900
 20
48.997284
 30
0.0
 10
-119.019579
 20
49.337742
 30
0.0
 10
-118.691501
 20
49.510820
 30
0.0
  0
SPLINE
  5
16c
100
AcDbEntity
  8
0
 62
7
100
AcDbSpline
 70
8
 71
3
 72
8
 73
4
 74
0
 40
0
 40
0
 40
0
 40
0
 40
1
 40
1
 40
1
 40
1
 10
-118.691501
 20
49.510820
 30
0.0
 10
-115.651096
 20
51.114783
 30
0.0
 10
-112.558866
 20
52.618525
 30
0.0
 10
-109.419806
 20
54.019619
 30
0.0
  0
LWPOLYLINE
  5
16d
100
AcDbEntity
  8
0
 62
7
100
AcDbPolyline
 90
2
 70
0
 10
-103.986966
 20
-45.727783
 30
0.0
 10
-130.927711
 20
-18.787038
 30
0.0
  0
LWPOLYLINE
  5
16e
100
AcDbEntity
  8
0
 62
7
100
AcDbPolyline
 90
2
 70
0
 10
-130.927711
 20
-17.372825
 30
0.0
 10
-124.192525
 20
-10.637639
 30
0.0
  0
LWPOLYLINE
  5
16f
100
AcDbEntity
  8
0
 62
7
100
AcDbPolyline
 90
2
 70
0
 10
-119.224900
 20
-5.515774
 30
0.0
 10
-119.224900
 20
48.626352
 30
0.0
  0
ENDSEC
  0
SECTION
  2
OBJECTS
  0
DICTIONARY
  5
C
330
0
100
AcDbDictionary
  3
ACAD_GROUP
350
D
  3
ACAD_MLINESTYLE
350
17
  0
DICTIONARY
  5
D
330
C
100
AcDbDictionary
  0
DICTIONARY
  5
1A
330
C
100
AcDbDictionary
  0
DICTIONARY
  5
17
330
C
100
AcDbDictionary
  3
STANDARD
350
18
  0
DICTIONARY
  5
19
330
C
100
AcDbDictionary
  0
ENDSEC
  0
EOF
