  0
SECTION
  2
HEADER
  9
$ACADVER
  1
AC1014
  9
$HANDSEED
  5
FFFF
  9
$MEASUREMENT
 70
     1
  0
ENDSEC
  0
SECTION
  2
TABLES
  0
TABLE
  2
VPORT
  5
8
330
0
100
AcDbSymbolTable
 70
     4
  0
VPORT
  5
2E
330
8
100
AcDbSymbolTableRecord
100
AcDbViewportTableRecord
  2
*ACTIVE
 70
     0
 10
0.0
 20
0.0
 11
1.0
 21
1.0
 12
210.0
 22
148.5
 13
0.0
 23
0.0
 14
10.0
 24
10.0
 15
10.0
 25
10.0
 16
0.0
 26
0.0
 36
1.0
 17
0.0
 27
0.0
 37
0.0
 40
341.0
 41
1.24
 42
50.0
 43
0.0
 44
0.0
 50
0.0
 51
0.0
 71
     0
 72
   100
 73
     1
 74
     3
 75
     0
 76
     0
 77
     0
 78
     0
  0
ENDTAB
  0
TABLE
  2
LTYPE
  5
5
330
0
100
AcDbSymbolTable
 70
     1
  0
LTYPE
  5
14
330
5
100
AcDbSymbolTableRecord
100
AcDbLinetypeTableRecord
  2
BYBLOCK
 70
     0
  3

 72
    65
 73
     0
 40
0.0
  0
LTYPE
  5
15
330
5
100
AcDbSymbolTableRecord
100
AcDbLinetypeTableRecord
  2
BYLAYER
 70
     0
  3

 72
    65
 73
     0
 40
0.0
  0
LTYPE
  5
16
330
5
100
AcDbSymbolTableRecord
100
AcDbLinetypeTableRecord
  2
CONTINUOUS
 70
     0
  3
Solid line
 72
    65
 73
     0
 40
0.0
  0
ENDTAB
  0
TABLE
  2
LAYER
  5
2
100
AcDbSymbolTable
 70
1
  0
LAYER
  5
50
100
AcDbSymbolTableRecord
100
AcDbLayerTableRecord
  2
0
 70
0
  6
CONTINUOUS
  0
ENDTAB
  0
TABLE
  2
STYLE
  5
3
330
0
100
AcDbSymbolTable
 70
     1
  0
STYLE
  5
11
330
3
100
AcDbSymbolTableRecord
100
AcDbTextStyleTableRecord
  2
STANDARD
 70
     0
 40
0.0
 41
1.0
 50
0.0
 71
     0
 42
2.5
  3
txt
  4

  0
ENDTAB
  0
TABLE
  2
VIEW
  5
6
330
0
100
AcDbSymbolTable
 70
     0
  0
ENDTAB
  0
TABLE
  2
UCS
  5
7
330
0
100
AcDbSymbolTable
 70
     0
  0
ENDTAB
  0
TABLE
  2
APPID
  5
9
330
0
100
AcDbSymbolTable
 70
     2
  0
APPID
  5
12
330
9
100
AcDbSymbolTableRecord
100
AcDbRegAppTableRecord
  2
ACAD
 70
     0
  0
ENDTAB
  0
TABLE
  2
DIMSTYLE
  5
A
330
0
100
AcDbSymbolTable
 70
     1
  0
DIMSTYLE
105
27
330
A
100
AcDbSymbolTableRecord
100
AcDbDimStyleTableRecord
  2
ISO-25
 70
     0
  3

  4

  5

  6

  7

 40
1.0
 41
2.5
 42
0.625
 43
3.75
 44
1.25
 45
0.0
 46
0.0
 47
0.0
 48
0.0
140
2.5
141
2.5
142
0.0
143
0.03937007874016
144
1.0
145
0.0
146
1.0
147
0.625
 71
     0
 72
     0
 73
     0
 74
     0
 75
     0
 76
     0
 77
     1
 78
     8
170
     0
171
     3
172
     1
173
     0
174
     0
175
     0
176
     0
177
     0
178
     0
270
     2
271
     2
272
     2
273
     2
274
     3
340
11
275
     0
280
     0
281
     0
282
     0
283
     0
284
     8
285
     0
286
     0
287
     3
288
     0
  0
ENDTAB
  0
TABLE
  2
BLOCK_RECORD
  5
1
330
0
100
AcDbSymbolTable
 70
     1
  0
BLOCK_RECORD
  5
1F
330
1
100
AcDbSymbolTableRecord
100
AcDbBlockTableRecord
  2
*MODEL_SPACE
  0
BLOCK_RECORD
  5
1B
330
1
100
AcDbSymbolTableRecord
100
AcDbBlockTableRecord
  2
*PAPER_SPACE
  0
ENDTAB
  0
ENDSEC
  0
SECTION
  2
BLOCKS
  0
BLOCK
  5
20
330
1F
100
AcDbEntity
  8
0
100
AcDbBlockBegin
  2
*MODEL_SPACE
 70
     0
 10
0.0
 20
0.0
 30
0.0
  3
*MODEL_SPACE
  1

  0
ENDBLK
  5
21
330
1F
100
AcDbEntity
  8
0
100
AcDbBlockEnd
  0
BLOCK
  5
1C
330
1B
100
AcDbEntity
 67
     1
  8
0
100
AcDbBlockBegin
  2
*PAPER_SPACE
  1

  0
ENDBLK
  5
1D
330
1B
100
AcDbEntity
 67
     1
  8
0
100
AcDbBlockEnd
  0
ENDSEC
  0
SECTION
  2
ENTITIES
  0
SPLINE
  5
100
100
AcDbEntity
  8
0
 62
7
100
AcDbSpline
 70
8
 71
3
 72
8
 73
4
 74
0
 40
0
 40
0
 40
0
 40
0
 40
1
 40
1
 40
1
 40
1
 10
10.724997
 20
9.524987
 30
0.0
 10
10.724997
 20
9.953706
 30
0.0
 10
10.496278
 20
10.349858
 30
0.0
 10
10.124997
 20
10.564217
 30
0.0
  0
SPLINE
  5
101
100
AcDbEntity
  8
0
 62
7
100
AcDbSpline
 70
8
 71
3
 72
8
 73
4
 74
0
 40
0
 40
0
 40
0
 40
0
 40
1
 40
1
 40
1
 40
1
 10
10.124997
 20
10.564217
 30
0.0
 10
9.753716
 20
10.778577
 30
0.0
 10
9.296279
 20
10.778577
 30
0.0
 10
8.924998
 20
10.564217
 30
0.0
  0
SPLINE
  5
102
100
AcDbEntity
  8
0
 62
7
100
AcDbSpline
 70
8
 71
3
 72
8
 73
4
 74
0
 40
0
 40
0
 40
0
 40
0
 40
1
 40
1
 40
1
 40
1
 10
8.924998
 20
10.564217
 30
0.0
 10
8.553716
 20
10.349858
 30
0.0
 10
8.324998
 20
9.953706
 30
0.0
 10
8.324998
 20
9.524987
 30
0.0
  0
SPLINE
  5
103
100
AcDbEntity
  8
0
 62
7
100
AcDbSpline
 70
8
 71
3
 72
8
 73
4
 74
0
 40
0
 40
0
 40
0
 40
0
 40
1
 40
1
 40
1
 40
1
 10
8.324998
 20
9.524987
 30
0.0
 10
8.324998
 20
9.096269
 30
0.0
 10
8.553716
 20
8.700116
 30
0.0
 10
8.924998
 20
8.485757
 30
0.0
  0
SPLINE
  5
104
100
AcDbEntity
  8
0
 62
7
100
AcDbSpline
 70
8
 71
3
 72
8
 73
4
 74
0
 40
0
 40
0
 40
0
 40
0
 40
1
 40
1
 40
1
 40
1
 10
8.924998
 20
8.485757
 30
0.0
 10
9.296279
 20
8.271398
 30
0.0
 10
9.753716
 20
8.271398
 30
0.0
 10
10.124997
 20
8.485757
 30
0.0
  0
SPLINE
  5
105
100
AcDbEntity
  8
0
 62
7
100
AcDbSpline
 70
8
 71
3
 72
8
 73
4
 74
0
 40
0
 40
0
 40
0
 40
0
 40
1
 40
1
 40
1
 40
1
 10
10.124997
 20
8.485757
 30
0.0
 10
10.496278
 20
8.700116
 30
0.0
 10
10.724997
 20
9.096269
 30
0.0
 10
10.724997
 20
9.524987
 30
0.0
  0
SPLINE
  5
106
100
AcDbEntity
  8
0
 62
7
100
AcDbSpline
 70
8
 71
3
 72
8
 73
4
 74
0
 40
0
 40
0
 40
0
 40
0
 40
1
 40
1
 40
1
 40
1
 10
-5.799998
 20
49.849986
 30
0.0
 10
-5.799998
 20
50.278705
 30
0.0
 10
-6.028717
 20
50.674857
 30
0.0
 10
-6.399998
 20
50.889216
 30
0.0
  0
SPLINE
  5
107
100
AcDbEntity
  8
0
 62
7
100
AcDbSpline
 70
8
 71
3
 72
8
 73
4
 74
0
 40
0
 40
0
 40
0
 40
0
 40
1
 40
1
 40
1
 40
1
 10
-6.399998
 20
50.889216
 30
0.0
 10
-6.771279
 20
51.103576
 30
0.0
 10
-7.228717
 20
51.103576
 30
0.0
 10
-7.599998
 20
50.889216
 30
0.0
  0
SPLINE
  5
108
100
AcDbEntity
  8
0
 62
7
100
AcDbSpline
 70
8
 71
3
 72
8
 73
4
 74
0
 40
0
 40
0
 40
0
 40
0
 40
1
 40
1
 40
1
 40
1
 10
-7.599998
 20
50.889216
 30
0.0
 10
-7.971279
 20
50.674857
 30
0.0
 10
-8.199998
 20
50.278705
 30
0.0
 10
-8.199998
 20
49.849986
 30
0.0
  0
SPLINE
  5
109
100
AcDbEntity
  8
0
 62
7
100
AcDbSpline
 70
8
 71
3
 72
8
 73
4
 74
0
 40
0
 40
0
 40
0
 40
0
 40
1
 40
1
 40
1
 40
1
 10
-8.199998
 20
49.849986
 30
0.0
 10
-8.199998
 20
49.421267
 30
0.0
 10
-7.971279
 20
49.025115
 30
0.0
 10
-7.599998
 20
48.810756
 30
0.0
  0
SPLINE
  5
10a
100
AcDbEntity
  8
0
 62
7
100
AcDbSpline
 70
8
 71
3
 72
8
 73
4
 74
0
 40
0
 40
0
 40
0
 40
0
 40
1
 40
1
 40
1
 40
1
 10
-7.599998
 20
48.810756
 30
0.0
 10
-7.228717
 20
48.596397
 30
0.0
 10
-6.771279
 20
48.596397
 30
0.0
 10
-6.399998
 20
48.810756
 30
0.0
  0
SPLINE
  5
10b
100
AcDbEntity
  8
0
 62
7
100
AcDbSpline
 70
8
 71
3
 72
8
 73
4
 74
0
 40
0
 40
0
 40
0
 40
0
 40
1
 40
1
 40
1
 40
1
 10
-6.399998
 20
48.810756
 30
0.0
 10
-6.028717
 20
49.025115
 30
0.0
 10
-5.799998
 20
49.421267
 30
0.0
 10
-5.799998
 20
49.849986
 30
0.0
  0
LWPOLYLINE
  5
10c
100
AcDbEntity
  8
0
 62
7
100
AcDbPolyline
 90
1
 70
1
 10
10.724997
 20
9.524987
 30
0.0
  0
SPLINE
  5
10d
100
AcDbEntity
  8
0
 62
7
100
AcDbSpline
 70
8
 71
3
 72
8
 73
4
 74
0
 40
0
 40
0
 40
0
 40
0
 40
1
 40
1
 40
1
 40
1
 10
-56.176127
 20
1.630615
 30
0.0
 10
-56.176127
 20
2.059334
 30
0.0
 10
-56.404846
 20
2.455486
 30
0.0
 10
-56.776127
 20
2.669845
 30
0.0
  0
SPLINE
  5
10e
100
AcDbEntity
  8
0
 62
7
100
AcDbSpline
 70
8
 71
3
 72
8
 73
4
 74
0
 40
0
 40
0
 40
0
 40
0
 40
1
 40
1
 40
1
 40
1
 10
-56.776127
 20
2.669845
 30
0.0
 10
-57.147408
 20
2.884205
 30
0.0
 10
-57.604845
 20
2.884205
 30
0.0
 10
-57.976127
 20
2.669845
 30
0.0
  0
SPLINE
  5
10f
100
AcDbEntity
  8
0
 62
7
100
AcDbSpline
 70
8
 71
3
 72
8
 73
4
 74
0
 40
0
 40
0
 40
0
 40
0
 40
1
 40
1
 40
1
 40
1
 10
-57.976127
 20
2.669845
 30
0.0
 10
-58.347408
 20
2.455486
 30
0.0
 10
-58.576126
 20
2.059334
 30
0.0
 10
-58.576126
 20
1.630615
 30
0.0
  0
SPLINE
  5
110
100
AcDbEntity
  8
0
 62
7
100
AcDbSpline
 70
8
 71
3
 72
8
 73
4
 74
0
 40
0
 40
0
 40
0
 40
0
 40
1
 40
1
 40
1
 40
1
 10
-58.576126
 20
1.630615
 30
0.0
 10
-58.576126
 20
1.201897
 30
0.0
 10
-58.347408
 20
0.805744
 30
0.0
 10
-57.976127
 20
0.591385
 30
0.0
  0
SPLINE
  5
111
100
AcDbEntity
  8
0
 62
7
100
AcDbSpline
 70
8
 71
3
 72
8
 73
4
 74
0
 40
0
 40
0
 40
0
 40
0
 40
1
 40
1
 40
1
 40
1
 10
-57.976127
 20
0.591385
 30
0.0
 10
-57.604845
 20
0.377026
 30
0.0
 10
-57.147408
 20
0.377026
 30
0.0
 10
-56.776127
 20
0.591385
 30
0.0
  0
SPLINE
  5
112
100
AcDbEntity
  8
0
 62
7
100
AcDbSpline
 70
8
 71
3
 72
8
 73
4
 74
0
 40
0
 40
0
 40
0
 40
0
 40
1
 40
1
 40
1
 40
1
 10
-56.776127
 20
0.591385
 30
0.0
 10
-56.404846
 20
0.805744
 30
0.0
 10
-56.176127
 20
1.201897
 30
0.0
 10
-56.176127
 20
1.630615
 30
0.0
  0
LWPOLYLINE
  5
113
100
AcDbEntity
  8
0
 62
7
100
AcDbPolyline
 90
1
 70
1
 10
-5.799998
 20
49.849986
 30
0.0
  0
SPLINE
  5
114
100
AcDbEntity
  8
0
 62
7
100
AcDbSpline
 70
8
 71
3
 72
8
 73
4
 74
0
 40
0
 40
0
 40
0
 40
0
 40
1
 40
1
 40
1
 40
1
 10
-100.107226
 20
-16.566242
 30
0.0
 10
-100.107226
 20
-16.137523
 30
0.0
 10
-100.335945
 20
-15.741371
 30
0.0
 10
-100.707226
 20
-15.527011
 30
0.0
  0
SPLINE
  5
115
100
AcDbEntity
  8
0
 62
7
100
AcDbSpline
 70
8
 71
3
 72
8
 73
4
 74
0
 40
0
 40
0
 40
0
 40
0
 40
1
 40
1
 40
1
 40
1
 10
-100.707226
 20
-15.527011
 30
0.0
 10
-101.078507
 20
-15.312652
 30
0.0
 10
-101.535945
 20
-15.312652
 30
0.0
 10
-101.907226
 20
-15.527011
 30
0.0
  0
SPLINE
  5
116
100
AcDbEntity
  8
0
 62
7
100
AcDbSpline
 70
8
 71
3
 72
8
 73
4
 74
0
 40
0
 40
0
 40
0
 40
0
 40
1
 40
1
 40
1
 40
1
 10
-101.907226
 20
-15.527011
 30
0.0
 10
-102.278507
 20
-15.741371
 30
0.0
 10
-102.507226
 20
-16.137523
 30
0.0
 10
-102.507226
 20
-16.566242
 30
0.0
  0
SPLINE
  5
117
100
AcDbEntity
  8
0
 62
7
100
AcDbSpline
 70
8
 71
3
 72
8
 73
4
 74
0
 40
0
 40
0
 40
0
 40
0
 40
1
 40
1
 40
1
 40
1
 10
-102.507226
 20
-16.566242
 30
0.0
 10
-102.507226
 20
-16.994960
 30
0.0
 10
-102.278507
 20
-17.391113
 30
0.0
 10
-101.907226
 20
-17.605472
 30
0.0
  0
SPLINE
  5
118
100
AcDbEntity
  8
0
 62
7
100
AcDbSpline
 70
8
 71
3
 72
8
 73
4
 74
0
 40
0
 40
0
 40
0
 40
0
 40
1
 40
1
 40
1
 40
1
 10
-101.907226
 20
-17.605472
 30
0.0
 10
-101.535945
 20
-17.819831
 30
0.0
 10
-101.078507
 20
-17.819831
 30
0.0
 10
-100.707226
 20
-17.605472
 30
0.0
  0
SPLINE
  5
119
100
AcDbEntity
  8
0
 62
7
100
AcDbSpline
 70
8
 71
3
 72
8
 73
4
 74
0
 40
0
 40
0
 40
0
 40
0
 40
1
 40
1
 40
1
 40
1
 10
-100.707226
 20
-17.605472
 30
0.0
 10
-100.335945
 20
-17.391113
 30
0.0
 10
-100.107226
 20
-16.994960
 30
0.0
 10
-100.107226
 20
-16.566242
 30
0.0
  0
LWPOLYLINE
  5
11a
100
AcDbEntity
  8
0
 62
7
100
AcDbPolyline
 90
1
 70
1
 10
-56.176127
 20
1.630615
 30
0.0
  0
SPLINE
  5
11b
100
AcDbEntity
  8
0
 62
7
100
AcDbSpline
 70
8
 71
3
 72
8
 73
4
 74
0
 40
0
 40
0
 40
0
 40
0
 40
1
 40
1
 40
1
 40
1
 10
-65.474982
 20
60.124983
 30
0.0
 10
-65.474982
 20
60.553702
 30
0.0
 10
-65.703700
 20
60.949854
 30
0.0
 10
-66.074981
 20
61.164213
 30
0.0
  0
SPLINE
  5
11c
100
AcDbEntity
  8
0
 62
7
100
AcDbSpline
 70
8
 71
3
 72
8
 73
4
 74
0
 40
0
 40
0
 40
0
 40
0
 40
1
 40
1
 40
1
 40
1
 10
-66.074981
 20
61.164213
 30
0.0
 10
-66.446263
 20
61.378572
 30
0.0
 10
-66.903700
 20
61.378572
 30
0.0
 10
-67.274981
 20
61.164213
 30
0.0
  0
SPLINE
  5
11d
100
AcDbEntity
  8
0
 62
7
100
AcDbSpline
 70
8
 71
3
 72
8
 73
4
 74
0
 40
0
 40
0
 40
0
 40
0
 40
1
 40
1
 40
1
 40
1
 10
-67.274981
 20
61.164213
 30
0.0
 10
-67.646262
 20
60.949854
 30
0.0
 10
-67.874981
 20
60.553702
 30
0.0
 10
-67.874981
 20
60.124983
 30
0.0
  0
SPLINE
  5
11e
100
AcDbEntity
  8
0
 62
7
100
AcDbSpline
 70
8
 71
3
 72
8
 73
4
 74
0
 40
0
 40
0
 40
0
 40
0
 40
1
 40
1
 40
1
 40
1
 10
-67.874981
 20
60.124983
 30
0.0
 10
-67.874981
 20
59.696264
 30
0.0
 10
-67.646262
 20
59.300112
 30
0.0
 10
-67.274981
 20
59.085753
 30
0.0
  0
SPLINE
  5
11f
100
AcDbEntity
  8
0
 62
7
100
AcDbSpline
 70
8
 71
3
 72
8
 73
4
 74
0
 40
0
 40
0
 40
0
 40
0
 40
1
 40
1
 40
1
 40
1
 10
-67.274981
 20
59.085753
 30
0.0
 10
-66.903700
 20
58.871394
 30
0.0
 10
-66.446263
 20
58.871394
 30
0.0
 10
-66.074981
 20
59.085753
 30
0.0
  0
SPLINE
  5
120
100
AcDbEntity
  8
0
 62
7
100
AcDbSpline
 70
8
 71
3
 72
8
 73
4
 74
0
 40
0
 40
0
 40
0
 40
0
 40
1
 40
1
 40
1
 40
1
 10
-66.074981
 20
59.085753
 30
0.0
 10
-65.703700
 20
59.300112
 30
0.0
 10
-65.474982
 20
59.696264
 30
0.0
 10
-65.474982
 20
60.124983
 30
0.0
  0
LWPOLYLINE
  5
121
100
AcDbEntity
  8
0
 62
7
100
AcDbPolyline
 90
1
 70
1
 10
-100.107226
 20
-16.566242
 30
0.0
  0
SPLINE
  5
122
100
AcDbEntity
  8
0
 62
7
100
AcDbSpline
 70
8
 71
3
 72
8
 73
4
 74
0
 40
0
 40
0
 40
0
 40
0
 40
1
 40
1
 40
1
 40
1
 10
-44.894588
 20
25.447296
 30
0.0
 10
-44.894588
 20
26.359288
 30
0.0
 10
-45.381130
 20
27.202003
 30
0.0
 10
-46.170938
 20
27.657999
 30
0.0
  0
SPLINE
  5
123
100
AcDbEntity
  8
0
 62
7
100
AcDbSpline
 70
8
 71
3
 72
8
 73
4
 74
0
 40
0
 40
0
 40
0
 40
0
 40
1
 40
1
 40
1
 40
1
 10
-46.170938
 20
27.657999
 30
0.0
 10
-46.960745
 20
28.113995
 30
0.0
 10
-47.933829
 20
28.113995
 30
0.0
 10
-48.723637
 20
27.657999
 30
0.0
  0
SPLINE
  5
124
100
AcDbEntity
  8
0
 62
7
100
AcDbSpline
 70
8
 71
3
 72
8
 73
4
 74
0
 40
0
 40
0
 40
0
 40
0
 40
1
 40
1
 40
1
 40
1
 10
-48.723637
 20
27.657999
 30
0.0
 10
-49.513445
 20
27.202003
 30
0.0
 10
-49.999987
 20
26.359288
 30
0.0
 10
-49.999987
 20
25.447296
 30
0.0
  0
SPLINE
  5
125
100
AcDbEntity
  8
0
 62
7
100
AcDbSpline
 70
8
 71
3
 72
8
 73
4
 74
0
 40
0
 40
0
 40
0
 40
0
 40
1
 40
1
 40
1
 40
1
 10
-49.999987
 20
25.447296
 30
0.0
 10
-49.999987
 20
24.535305
 30
0.0
 10
-49.513445
 20
23.692590
 30
0.0
 10
-48.723637
 20
23.236594
 30
0.0
  0
SPLINE
  5
126
100
AcDbEntity
  8
0
 62
7
100
AcDbSpline
 70
8
 71
3
 72
8
 73
4
 74
0
 40
0
 40
0
 40
0
 40
0
 40
1
 40
1
 40
1
 40
1
 10
-48.723637
 20
23.236594
 30
0.0
 10
-47.933829
 20
22.780598
 30
0.0
 10
-46.960745
 20
22.780598
 30
0.0
 10
-46.170938
 20
23.236594
 30
0.0
  0
SPLINE
  5
127
100
AcDbEntity
  8
0
 62
7
100
AcDbSpline
 70
8
 71
3
 72
8
 73
4
 74
0
 40
0
 40
0
 40
0
 40
0
 40
1
 40
1
 40
1
 40
1
 10
-46.170938
 20
23.236594
 30
0.0
 10
-45.381130
 20
23.692590
 30
0.0
 10
-44.894588
 20
24.535305
 30
0.0
 10
-44.894588
 20
25.447296
 30
0.0
  0
LWPOLYLINE
  5
128
100
AcDbEntity
  8
0
 62
7
100
AcDbPolyline
 90
1
 70
1
 10
-65.474982
 20
60.124983
 30
0.0
  0
SPLINE
  5
129
100
AcDbEntity
  8
0
 62
7
100
AcDbSpline
 70
8
 71
3
 72
8
 73
4
 74
0
 40
0
 40
0
 40
0
 40
0
 40
1
 40
1
 40
1
 40
1
 10
-59.894583
 20
10.447304
 30
0.0
 10
-59.894583
 20
11.359296
 30
0.0
 10
-60.381125
 20
12.202011
 30
0.0
 10
-61.170932
 20
12.658006
 30
0.0
  0
SPLINE
  5
12a
100
AcDbEntity
  8
0
 62
7
100
AcDbSpline
 70
8
 71
3
 72
8
 73
4
 74
0
 40
0
 40
0
 40
0
 40
0
 40
1
 40
1
 40
1
 40
1
 10
-61.170932
 20
12.658006
 30
0.0
 10
-61.960740
 20
13.114002
 30
0.0
 10
-62.933824
 20
13.114002
 30
0.0
 10
-63.723632
 20
12.658006
 30
0.0
  0
SPLINE
  5
12b
100
AcDbEntity
  8
0
 62
7
100
AcDbSpline
 70
8
 71
3
 72
8
 73
4
 74
0
 40
0
 40
0
 40
0
 40
0
 40
1
 40
1
 40
1
 40
1
 10
-63.723632
 20
12.658006
 30
0.0
 10
-64.513440
 20
12.202011
 30
0.0
 10
-64.999981
 20
11.359296
 30
0.0
 10
-64.999981
 20
10.447304
 30
0.0
  0
SPLINE
  5
12c
100
AcDbEntity
  8
0
 62
7
100
AcDbSpline
 70
8
 71
3
 72
8
 73
4
 74
0
 40
0
 40
0
 40
0
 40
0
 40
1
 40
1
 40
1
 40
1
 10
-64.999981
 20
10.447304
 30
0.0
 10
-64.999981
 20
9.535313
 30
0.0
 10
-64.513440
 20
8.692598
 30
0.0
 10
-63.723632
 20
8.236602
 30
0.0
  0
SPLINE
  5
12d
100
AcDbEntity
  8
0
 62
7
100
AcDbSpline
 70
8
 71
3
 72
8
 73
4
 74
0
 40
0
 40
0
 40
0
 40
0
 40
1
 40
1
 40
1
 40
1
 10
-63.723632
 20
8.236602
 30
0.0
 10
-62.933824
 20
7.780606
 30
0.0
 10
-61.960740
 20
7.780606
 30
0.0
 10
-61.170932
 20
8.236602
 30
0.0
  0
SPLINE
  5
12e
100
AcDbEntity
  8
0
 62
7
100
AcDbSpline
 70
8
 71
3
 72
8
 73
4
 74
0
 40
0
 40
0
 40
0
 40
0
 40
1
 40
1
 40
1
 40
1
 10
-61.170932
 20
8.236602
 30
0.0
 10
-60.381125
 20
8.692598
 30
0.0
 10
-59.894583
 20
9.535313
 30
0.0
 10
-59.894583
 20
10.447304
 30
0.0
  0
LWPOLYLINE
  5
12f
100
AcDbEntity
  8
0
 62
7
100
AcDbPolyline
 90
1
 70
1
 10
-44.894588
 20
25.447296
 30
0.0
  0
SPLINE
  5
130
100
AcDbEntity
  8
0
 62
7
100
AcDbSpline
 70
8
 71
3
 72
8
 73
4
 74
0
 40
0
 40
0
 40
0
 40
0
 40
1
 40
1
 40
1
 40
1
 10
-74.894578
 20
25.447296
 30
0.0
 10
-74.894578
 20
26.359288
 30
0.0
 10
-75.381119
 20
27.202003
 30
0.0
 10
-76.170927
 20
27.657999
 30
0.0
  0
SPLINE
  5
131
100
AcDbEntity
  8
0
 62
7
100
AcDbSpline
 70
8
 71
3
 72
8
 73
4
 74
0
 40
0
 40
0
 40
0
 40
0
 40
1
 40
1
 40
1
 40
1
 10
-76.170927
 20
27.657999
 30
0.0
 10
-76.960735
 20
28.113995
 30
0.0
 10
-77.933819
 20
28.113995
 30
0.0
 10
-78.723627
 20
27.657999
 30
0.0
  0
SPLINE
  5
132
100
AcDbEntity
  8
0
 62
7
100
AcDbSpline
 70
8
 71
3
 72
8
 73
4
 74
0
 40
0
 40
0
 40
0
 40
0
 40
1
 40
1
 40
1
 40
1
 10
-78.723627
 20
27.657999
 30
0.0
 10
-79.513435
 20
27.202003
 30
0.0
 10
-79.999976
 20
26.359288
 30
0.0
 10
-79.999976
 20
25.447296
 30
0.0
  0
SPLINE
  5
133
100
AcDbEntity
  8
0
 62
7
100
AcDbSpline
 70
8
 71
3
 72
8
 73
4
 74
0
 40
0
 40
0
 40
0
 40
0
 40
1
 40
1
 40
1
 40
1
 10
-79.999976
 20
25.447296
 30
0.0
 10
-79.999976
 20
24.535305
 30
0.0
 10
-79.513435
 20
23.692590
 30
0.0
 10
-78.723627
 20
23.236594
 30
0.0
  0
SPLINE
  5
134
100
AcDbEntity
  8
0
 62
7
100
AcDbSpline
 70
8
 71
3
 72
8
 73
4
 74
0
 40
0
 40
0
 40
0
 40
0
 40
1
 40
1
 40
1
 40
1
 10
-78.723627
 20
23.236594
 30
0.0
 10
-77.933819
 20
22.780598
 30
0.0
 10
-76.960735
 20
22.780598
 30
0.0
 10
-76.170927
 20
23.236594
 30
0.0
  0
SPLINE
  5
135
100
AcDbEntity
  8
0
 62
7
100
AcDbSpline
 70
8
 71
3
 72
8
 73
4
 74
0
 40
0
 40
0
 40
0
 40
0
 40
1
 40
1
 40
1
 40
1
 10
-76.170927
 20
23.236594
 30
0.0
 10
-75.381119
 20
23.692590
 30
0.0
 10
-74.894578
 20
24.535305
 30
0.0
 10
-74.894578
 20
25.447296
 30
0.0
  0
LWPOLYLINE
  5
136
100
AcDbEntity
  8
0
 62
7
100
AcDbPolyline
 90
1
 70
1
 10
-59.894583
 20
10.447304
 30
0.0
  0
SPLINE
  5
137
100
AcDbEntity
  8
0
 62
7
100
AcDbSpline
 70
8
 71
3
 72
8
 73
4
 74
0
 40
0
 40
0
 40
0
 40
0
 40
1
 40
1
 40
1
 40
1
 10
-27.436363
 20
-0.252284
 30
0.0
 10
-27.436363
 20
2.427207
 30
0.0
 10
-28.865855
 20
4.903159
 30
0.0
 10
-31.186362
 20
6.242905
 30
0.0
  0
SPLINE
  5
138
100
AcDbEntity
  8
0
 62
7
100
AcDbSpline
 70
8
 71
3
 72
8
 73
4
 74
0
 40
0
 40
0
 40
0
 40
0
 40
1
 40
1
 40
1
 40
1
 10
-31.186362
 20
6.242905
 30
0.0
 10
-33.506869
 20
7.582651
 30
0.0
 10
-36.365852
 20
7.582651
 30
0.0
 10
-38.686359
 20
6.242905
 30
0.0
  0
SPLINE
  5
139
100
AcDbEntity
  8
0
 62
7
100
AcDbSpline
 70
8
 71
3
 72
8
 73
4
 74
0
 40
0
 40
0
 40
0
 40
0
 40
1
 40
1
 40
1
 40
1
 10
-38.686359
 20
6.242905
 30
0.0
 10
-41.006867
 20
4.903159
 30
0.0
 10
-42.436358
 20
2.427207
 30
0.0
 10
-42.436358
 20
-0.252284
 30
0.0
  0
SPLINE
  5
13a
100
AcDbEntity
  8
0
 62
7
100
AcDbSpline
 70
8
 71
3
 72
8
 73
4
 74
0
 40
0
 40
0
 40
0
 40
0
 40
1
 40
1
 40
1
 40
1
 10
-42.436358
 20
-0.252284
 30
0.0
 10
-42.436358
 20
-2.931775
 30
0.0
 10
-41.006867
 20
-5.407727
 30
0.0
 10
-38.686359
 20
-6.747473
 30
0.0
  0
SPLINE
  5
13b
100
AcDbEntity
  8
0
 62
7
100
AcDbSpline
 70
8
 71
3
 72
8
 73
4
 74
0
 40
0
 40
0
 40
0
 40
0
 40
1
 40
1
 40
1
 40
1
 10
-38.686359
 20
-6.747473
 30
0.0
 10
-36.365852
 20
-8.087219
 30
0.0
 10
-33.506869
 20
-8.087219
 30
0.0
 10
-31.186362
 20
-6.747473
 30
0.0
  0
SPLINE
  5
13c
100
AcDbEntity
  8
0
 62
7
100
AcDbSpline
 70
8
 71
3
 72
8
 73
4
 74
0
 40
0
 40
0
 40
0
 40
0
 40
1
 40
1
 40
1
 40
1
 10
-31.186362
 20
-6.747473
 30
0.0
 10
-28.865855
 20
-5.407727
 30
0.0
 10
-27.436363
 20
-2.931775
 30
0.0
 10
-27.436363
 20
-0.252284
 30
0.0
  0
LWPOLYLINE
  5
13d
100
AcDbEntity
  8
0
 62
7
100
AcDbPolyline
 90
1
 70
1
 10
-74.894578
 20
25.447296
 30
0.0
  0
SPLINE
  5
13e
100
AcDbEntity
  8
0
 62
7
100
AcDbSpline
 70
8
 71
3
 72
8
 73
4
 74
0
 40
0
 40
0
 40
0
 40
0
 40
1
 40
1
 40
1
 40
1
 10
17.946055
 20
27.504272
 30
0.0
 10
17.947061
 20
30.184435
 30
0.0
 10
16.517790
 20
32.661437
 30
0.0
 10
14.196870
 20
34.001809
 30
0.0
  0
SPLINE
  5
13f
100
AcDbEntity
  8
0
 62
7
100
AcDbSpline
 70
8
 71
3
 72
8
 73
4
 74
0
 40
0
 40
0
 40
0
 40
0
 40
1
 40
1
 40
1
 40
1
 10
14.196870
 20
34.001809
 30
0.0
 10
11.875949
 20
35.342181
 30
0.0
 10
9.016166
 20
35.342181
 30
0.0
 10
6.695246
 20
34.001809
 30
0.0
  0
SPLINE
  5
140
100
AcDbEntity
  8
0
 62
7
100
AcDbSpline
 70
8
 71
3
 72
8
 73
4
 74
0
 40
0
 40
0
 40
0
 40
0
 40
1
 40
1
 40
1
 40
1
 10
6.695246
 20
34.001809
 30
0.0
 10
4.374325
 20
32.661437
 30
0.0
 10
2.945054
 20
30.184435
 30
0.0
 10
2.946061
 20
27.504272
 30
0.0
  0
SPLINE
  5
141
100
AcDbEntity
  8
0
 62
7
100
AcDbSpline
 70
8
 71
3
 72
8
 73
4
 74
0
 40
0
 40
0
 40
0
 40
0
 40
1
 40
1
 40
1
 40
1
 10
2.946061
 20
27.504272
 30
0.0
 10
2.945054
 20
24.824110
 30
0.0
 10
4.374325
 20
22.347108
 30
0.0
 10
6.695246
 20
21.006736
 30
0.0
  0
SPLINE
  5
142
100
AcDbEntity
  8
0
 62
7
100
AcDbSpline
 70
8
 71
3
 72
8
 73
4
 74
0
 40
0
 40
0
 40
0
 40
0
 40
1
 40
1
 40
1
 40
1
 10
6.695246
 20
21.006736
 30
0.0
 10
9.016166
 20
19.666364
 30
0.0
 10
11.875949
 20
19.666364
 30
0.0
 10
14.196870
 20
21.006736
 30
0.0
  0
SPLINE
  5
143
100
AcDbEntity
  8
0
 62
7
100
AcDbSpline
 70
8
 71
3
 72
8
 73
4
 74
0
 40
0
 40
0
 40
0
 40
0
 40
1
 40
1
 40
1
 40
1
 10
14.196870
 20
21.006736
 30
0.0
 10
16.517790
 20
22.347108
 30
0.0
 10
17.947061
 20
24.824110
 30
0.0
 10
17.946055
 20
27.504272
 30
0.0
  0
LWPOLYLINE
  5
144
100
AcDbEntity
  8
0
 62
7
100
AcDbPolyline
 90
1
 70
1
 10
-27.436363
 20
-0.252284
 30
0.0
  0
SPLINE
  5
145
100
AcDbEntity
  8
0
 62
7
100
AcDbSpline
 70
8
 71
3
 72
8
 73
4
 74
0
 40
0
 40
0
 40
0
 40
0
 40
1
 40
1
 40
1
 40
1
 10
-71.900532
 20
-8.112047
 30
0.0
 10
-71.900532
 20
-5.432556
 30
0.0
 10
-73.330024
 20
-2.956604
 30
0.0
 10
-75.650531
 20
-1.616858
 30
0.0
  0
SPLINE
  5
146
100
AcDbEntity
  8
0
 62
7
100
AcDbSpline
 70
8
 71
3
 72
8
 73
4
 74
0
 40
0
 40
0
 40
0
 40
0
 40
1
 40
1
 40
1
 40
1
 10
-75.650531
 20
-1.616858
 30
0.0
 10
-77.971038
 20
-0.277112
 30
0.0
 10
-80.830021
 20
-0.277112
 30
0.0
 10
-83.150529
 20
-1.616858
 30
0.0
  0
SPLINE
  5
147
100
AcDbEntity
  8
0
 62
7
100
AcDbSpline
 70
8
 71
3
 72
8
 73
4
 74
0
 40
0
 40
0
 40
0
 40
0
 40
1
 40
1
 40
1
 40
1
 10
-83.150529
 20
-1.616858
 30
0.0
 10
-85.471036
 20
-2.956604
 30
0.0
 10
-86.900527
 20
-5.432556
 30
0.0
 10
-86.900527
 20
-8.112047
 30
0.0
  0
SPLINE
  5
148
100
AcDbEntity
  8
0
 62
7
100
AcDbSpline
 70
8
 71
3
 72
8
 73
4
 74
0
 40
0
 40
0
 40
0
 40
0
 40
1
 40
1
 40
1
 40
1
 10
-86.900527
 20
-8.112047
 30
0.0
 10
-86.900527
 20
-10.791539
 30
0.0
 10
-85.471036
 20
-13.267491
 30
0.0
 10
-83.150529
 20
-14.607236
 30
0.0
  0
SPLINE
  5
149
100
AcDbEntity
  8
0
 62
7
100
AcDbSpline
 70
8
 71
3
 72
8
 73
4
 74
0
 40
0
 40
0
 40
0
 40
0
 40
1
 40
1
 40
1
 40
1
 10
-83.150529
 20
-14.607236
 30
0.0
 10
-80.830021
 20
-15.946982
 30
0.0
 10
-77.971038
 20
-15.946982
 30
0.0
 10
-75.650531
 20
-14.607236
 30
0.0
  0
SPLINE
  5
14a
100
AcDbEntity
  8
0
 62
7
100
AcDbSpline
 70
8
 71
3
 72
8
 73
4
 74
0
 40
0
 40
0
 40
0
 40
0
 40
1
 40
1
 40
1
 40
1
 10
-75.650531
 20
-14.607236
 30
0.0
 10
-73.330024
 20
-13.267491
 30
0.0
 10
-71.900532
 20
-10.791539
 30
0.0
 10
-71.900532
 20
-8.112047
 30
0.0
  0
LWPOLYLINE
  5
14b
100
AcDbEntity
  8
0
 62
7
100
AcDbPolyline
 90
1
 70
1
 10
17.946055
 20
27.504272
 30
0.0
  0
SPLINE
  5
14c
100
AcDbEntity
  8
0
 62
7
100
AcDbSpline
 70
8
 71
3
 72
8
 73
4
 74
0
 40
0
 40
0
 40
0
 40
0
 40
1
 40
1
 40
1
 40
1
 10
-55.063941
 20
41.606124
 30
0.0
 10
-55.063941
 20
44.285615
 30
0.0
 10
-56.493432
 20
46.761567
 30
0.0
 10
-58.813939
 20
48.101313
 30
0.0
  0
SPLINE
  5
14d
100
AcDbEntity
  8
0
 62
7
100
AcDbSpline
 70
8
 71
3
 72
8
 73
4
 74
0
 40
0
 40
0
 40
0
 40
0
 40
1
 40
1
 40
1
 40
1
 10
-58.813939
 20
48.101313
 30
0.0
 10
-61.134447
 20
49.441058
 30
0.0
 10
-63.993430
 20
49.441058
 30
0.0
 10
-66.313937
 20
48.101313
 30
0.0
  0
SPLINE
  5
14e
100
AcDbEntity
  8
0
 62
7
100
AcDbSpline
 70
8
 71
3
 72
8
 73
4
 74
0
 40
0
 40
0
 40
0
 40
0
 40
1
 40
1
 40
1
 40
1
 10
-66.313937
 20
48.101313
 30
0.0
 10
-68.634444
 20
46.761567
 30
0.0
 10
-70.063936
 20
44.285615
 30
0.0
 10
-70.063936
 20
41.606124
 30
0.0
  0
SPLINE
  5
14f
100
AcDbEntity
  8
0
 62
7
100
AcDbSpline
 70
8
 71
3
 72
8
 73
4
 74
0
 40
0
 40
0
 40
0
 40
0
 40
1
 40
1
 40
1
 40
1
 10
-70.063936
 20
41.606124
 30
0.0
 10
-70.063936
 20
38.926632
 30
0.0
 10
-68.634444
 20
36.450680
 30
0.0
 10
-66.313937
 20
35.110935
 30
0.0
  0
SPLINE
  5
150
100
AcDbEntity
  8
0
 62
7
100
AcDbSpline
 70
8
 71
3
 72
8
 73
4
 74
0
 40
0
 40
0
 40
0
 40
0
 40
1
 40
1
 40
1
 40
1
 10
-66.313937
 20
35.110935
 30
0.0
 10
-63.993430
 20
33.771189
 30
0.0
 10
-61.134447
 20
33.771189
 30
0.0
 10
-58.813939
 20
35.110935
 30
0.0
  0
SPLINE
  5
151
100
AcDbEntity
  8
0
 62
7
100
AcDbSpline
 70
8
 71
3
 72
8
 73
4
 74
0
 40
0
 40
0
 40
0
 40
0
 40
1
 40
1
 40
1
 40
1
 10
-58.813939
 20
35.110935
 30
0.0
 10
-56.493432
 20
36.450680
 30
0.0
 10
-55.063941
 20
38.926632
 30
0.0
 10
-55.063941
 20
41.606124
 30
0.0
  0
LWPOLYLINE
  5
152
100
AcDbEntity
  8
0
 62
7
100
AcDbPolyline
 90
1
 70
1
 10
-71.900532
 20
-8.112047
 30
0.0
  0
SPLINE
  5
153
100
AcDbEntity
  8
0
 62
7
100
AcDbSpline
 70
8
 71
3
 72
8
 73
4
 74
0
 40
0
 40
0
 40
0
 40
0
 40
1
 40
1
 40
1
 40
1
 10
-29.894590
 20
40.447289
 30
0.0
 10
-29.894590
 20
41.359280
 30
0.0
 10
-30.381132
 20
42.201995
 30
0.0
 10
-31.170940
 20
42.657991
 30
0.0
  0
SPLINE
  5
154
100
AcDbEntity
  8
0
 62
7
100
AcDbSpline
 70
8
 71
3
 72
8
 73
4
 74
0
 40
0
 40
0
 40
0
 40
0
 40
1
 40
1
 40
1
 40
1
 10
-31.170940
 20
42.657991
 30
0.0
 10
-31.960748
 20
43.113987
 30
0.0
 10
-32.933831
 20
43.113987
 30
0.0
 10
-33.723639
 20
42.657991
 30
0.0
  0
SPLINE
  5
155
100
AcDbEntity
  8
0
 62
7
100
AcDbSpline
 70
8
 71
3
 72
8
 73
4
 74
0
 40
0
 40
0
 40
0
 40
0
 40
1
 40
1
 40
1
 40
1
 10
-33.723639
 20
42.657991
 30
0.0
 10
-34.513447
 20
42.201995
 30
0.0
 10
-34.999989
 20
41.359280
 30
0.0
 10
-34.999989
 20
40.447289
 30
0.0
  0
SPLINE
  5
156
100
AcDbEntity
  8
0
 62
7
100
AcDbSpline
 70
8
 71
3
 72
8
 73
4
 74
0
 40
0
 40
0
 40
0
 40
0
 40
1
 40
1
 40
1
 40
1
 10
-34.999989
 20
40.447289
 30
0.0
 10
-34.999989
 20
39.535297
 30
0.0
 10
-34.513447
 20
38.692582
 30
0.0
 10
-33.723639
 20
38.236586
 30
0.0
  0
SPLINE
  5
157
100
AcDbEntity
  8
0
 62
7
100
AcDbSpline
 70
8
 71
3
 72
8
 73
4
 74
0
 40
0
 40
0
 40
0
 40
0
 40
1
 40
1
 40
1
 40
1
 10
-33.723639
 20
38.236586
 30
0.0
 10
-32.933831
 20
37.780590
 30
0.0
 10
-31.960748
 20
37.780590
 30
0.0
 10
-31.170940
 20
38.236586
 30
0.0
  0
SPLINE
  5
158
100
AcDbEntity
  8
0
 62
7
100
AcDbSpline
 70
8
 71
3
 72
8
 73
4
 74
0
 40
0
 40
0
 40
0
 40
0
 40
1
 40
1
 40
1
 40
1
 10
-31.170940
 20
38.236586
 30
0.0
 10
-30.381132
 20
38.692582
 30
0.0
 10
-29.894590
 20
39.535297
 30
0.0
 10
-29.894590
 20
40.447289
 30
0.0
  0
LWPOLYLINE
  5
159
100
AcDbEntity
  8
0
 62
7
100
AcDbPolyline
 90
1
 70
1
 10
-55.063941
 20
41.606124
 30
0.0
  0
SPLINE
  5
15a
100
AcDbEntity
  8
0
 62
7
100
AcDbSpline
 70
8
 71
3
 72
8
 73
4
 74
0
 40
0
 40
0
 40
0
 40
0
 40
1
 40
1
 40
1
 40
1
 10
-14.894595
 20
25.447296
 30
0.0
 10
-14.894595
 20
26.359288
 30
0.0
 10
-15.381137
 20
27.202003
 30
0.0
 10
-16.170945
 20
27.657999
 30
0.0
  0
SPLINE
  5
15b
100
AcDbEntity
  8
0
 62
7
100
AcDbSpline
 70
8
 71
3
 72
8
 73
4
 74
0
 40
0
 40
0
 40
0
 40
0
 40
1
 40
1
 40
1
 40
1
 10
-16.170945
 20
27.657999
 30
0.0
 10
-16.960753
 20
28.113995
 30
0.0
 10
-17.933836
 20
28.113995
 30
0.0
 10
-18.723644
 20
27.657999
 30
0.0
  0
SPLINE
  5
15c
100
AcDbEntity
  8
0
 62
7
100
AcDbSpline
 70
8
 71
3
 72
8
 73
4
 74
0
 40
0
 40
0
 40
0
 40
0
 40
1
 40
1
 40
1
 40
1
 10
-18.723644
 20
27.657999
 30
0.0
 10
-19.513453
 20
27.202003
 30
0.0
 10
-19.999994
 20
26.359288
 30
0.0
 10
-19.999994
 20
25.447296
 30
0.0
  0
SPLINE
  5
15d
100
AcDbEntity
  8
0
 62
7
100
AcDbSpline
 70
8
 71
3
 72
8
 73
4
 74
0
 40
0
 40
0
 40
0
 40
0
 40
1
 40
1
 40
1
 40
1
 10
-19.999994
 20
25.447296
 30
0.0
 10
-19.999994
 20
24.535305
 30
0.0
 10
-19.513453
 20
23.692589
 30
0.0
 10
-18.723644
 20
23.236594
 30
0.0
  0
SPLINE
  5
15e
100
AcDbEntity
  8
0
 62
7
100
AcDbSpline
 70
8
 71
3
 72
8
 73
4
 74
0
 40
0
 40
0
 40
0
 40
0
 40
1
 40
1
 40
1
 40
1
 10
-18.723644
 20
23.236594
 30
0.0
 10
-17.933836
 20
22.780598
 30
0.0
 10
-16.960753
 20
22.780598
 30
0.0
 10
-16.170945
 20
23.236594
 30
0.0
  0
SPLINE
  5
15f
100
AcDbEntity
  8
0
 62
7
100
AcDbSpline
 70
8
 71
3
 72
8
 73
4
 74
0
 40
0
 40
0
 40
0
 40
0
 40
1
 40
1
 40
1
 40
1
 10
-16.170945
 20
23.236594
 30
0.0
 10
-15.381137
 20
23.692589
 30
0.0
 10
-14.894595
 20
24.535305
 30
0.0
 10
-14.894595
 20
25.447296
 30
0.0
  0
LWPOLYLINE
  5
160
100
AcDbEntity
  8
0
 62
7
100
AcDbPolyline
 90
1
 70
1
 10
-29.894590
 20
40.447289
 30
0.0
  0
SPLINE
  5
161
100
AcDbEntity
  8
0
 62
7
100
AcDbSpline
 70
8
 71
3
 72
8
 73
4
 74
0
 40
0
 40
0
 40
0
 40
0
 40
1
 40
1
 40
1
 40
1
 10
-11.963653
 20
0.250000
 30
0.0
 10
-11.963653
 20
0.678719
 30
0.0
 10
-12.192372
 20
1.074871
 30
0.0
 10
-12.563653
 20
1.289230
 30
0.0
  0
SPLINE
  5
162
100
AcDbEntity
  8
0
 62
7
100
AcDbSpline
 70
8
 71
3
 72
8
 73
4
 74
0
 40
0
 40
0
 40
0
 40
0
 40
1
 40
1
 40
1
 40
1
 10
-12.563653
 20
1.289230
 30
0.0
 10
-12.934934
 20
1.503589
 30
0.0
 10
-13.392372
 20
1.503589
 30
0.0
 10
-13.763653
 20
1.289230
 30
0.0
  0
SPLINE
  5
163
100
AcDbEntity
  8
0
 62
7
100
AcDbSpline
 70
8
 71
3
 72
8
 73
4
 74
0
 40
0
 40
0
 40
0
 40
0
 40
1
 40
1
 40
1
 40
1
 10
-13.763653
 20
1.289230
 30
0.0
 10
-14.134934
 20
1.074871
 30
0.0
 10
-14.363653
 20
0.678719
 30
0.0
 10
-14.363653
 20
0.250000
 30
0.0
  0
SPLINE
  5
164
100
AcDbEntity
  8
0
 62
7
100
AcDbSpline
 70
8
 71
3
 72
8
 73
4
 74
0
 40
0
 40
0
 40
0
 40
0
 40
1
 40
1
 40
1
 40
1
 10
-14.363653
 20
0.250000
 30
0.0
 10
-14.363653
 20
-0.178719
 30
0.0
 10
-14.134934
 20
-0.574871
 30
0.0
 10
-13.763653
 20
-0.789230
 30
0.0
  0
SPLINE
  5
165
100
AcDbEntity
  8
0
 62
7
100
AcDbSpline
 70
8
 71
3
 72
8
 73
4
 74
0
 40
0
 40
0
 40
0
 40
0
 40
1
 40
1
 40
1
 40
1
 10
-13.763653
 20
-0.789230
 30
0.0
 10
-13.392372
 20
-1.003590
 30
0.0
 10
-12.934934
 20
-1.003590
 30
0.0
 10
-12.563653
 20
-0.789230
 30
0.0
  0
SPLINE
  5
166
100
AcDbEntity
  8
0
 62
7
100
AcDbSpline
 70
8
 71
3
 72
8
 73
4
 74
0
 40
0
 40
0
 40
0
 40
0
 40
1
 40
1
 40
1
 40
1
 10
-12.563653
 20
-0.789230
 30
0.0
 10
-12.192372
 20
-0.574871
 30
0.0
 10
-11.963653
 20
-0.178719
 30
0.0
 10
-11.963653
 20
0.250000
 30
0.0
  0
LWPOLYLINE
  5
167
100
AcDbEntity
  8
0
 62
7
100
AcDbPolyline
 90
1
 70
1
 10
-14.894595
 20
25.447296
 30
0.0
  0
SPLINE
  5
168
100
AcDbEntity
  8
0
 62
7
100
AcDbSpline
 70
8
 71
3
 72
8
 73
4
 74
0
 40
0
 40
0
 40
0
 40
0
 40
1
 40
1
 40
1
 40
1
 10
10.724997
 20
47.624977
 30
0.0
 10
10.724997
 20
48.053695
 30
0.0
 10
10.496278
 20
48.449847
 30
0.0
 10
10.124997
 20
48.664207
 30
0.0
  0
SPLINE
  5
169
100
AcDbEntity
  8
0
 62
7
100
AcDbSpline
 70
8
 71
3
 72
8
 73
4
 74
0
 40
0
 40
0
 40
0
 40
0
 40
1
 40
1
 40
1
 40
1
 10
10.124997
 20
48.664207
 30
0.0
 10
9.753716
 20
48.878566
 30
0.0
 10
9.296279
 20
48.878566
 30
0.0
 10
8.924998
 20
48.664207
 30
0.0
  0
SPLINE
  5
16a
100
AcDbEntity
  8
0
 62
7
100
AcDbSpline
 70
8
 71
3
 72
8
 73
4
 74
0
 40
0
 40
0
 40
0
 40
0
 40
1
 40
1
 40
1
 40
1
 10
8.924998
 20
48.664207
 30
0.0
 10
8.553716
 20
48.449847
 30
0.0
 10
8.324998
 20
48.053695
 30
0.0
 10
8.324998
 20
47.624977
 30
0.0
  0
SPLINE
  5
16b
100
AcDbEntity
  8
0
 62
7
100
AcDbSpline
 70
8
 71
3
 72
8
 73
4
 74
0
 40
0
 40
0
 40
0
 40
0
 40
1
 40
1
 40
1
 40
1
 10
8.324998
 20
47.624977
 30
0.0
 10
8.324998
 20
47.196258
 30
0.0
 10
8.553716
 20
46.800106
 30
0.0
 10
8.924998
 20
46.585746
 30
0.0
  0
SPLINE
  5
16c
100
AcDbEntity
  8
0
 62
7
100
AcDbSpline
 70
8
 71
3
 72
8
 73
4
 74
0
 40
0
 40
0
 40
0
 40
0
 40
1
 40
1
 40
1
 40
1
 10
8.924998
 20
46.585746
 30
0.0
 10
9.296279
 20
46.371387
 30
0.0
 10
9.753716
 20
46.371387
 30
0.0
 10
10.124997
 20
46.585746
 30
0.0
  0
SPLINE
  5
16d
100
AcDbEntity
  8
0
 62
7
100
AcDbSpline
 70
8
 71
3
 72
8
 73
4
 74
0
 40
0
 40
0
 40
0
 40
0
 40
1
 40
1
 40
1
 40
1
 10
10.124997
 20
46.585746
 30
0.0
 10
10.496278
 20
46.800106
 30
0.0
 10
10.724997
 20
47.196258
 30
0.0
 10
10.724997
 20
47.624977
 30
0.0
  0
LWPOLYLINE
  5
16e
100
AcDbEntity
  8
0
 62
7
100
AcDbPolyline
 90
1
 70
1
 10
-11.963653
 20
0.250000
 30
0.0
  0
SPLINE
  5
16f
100
AcDbEntity
  8
0
 62
7
100
AcDbSpline
 70
8
 71
3
 72
8
 73
4
 74
0
 40
0
 40
0
 40
0
 40
0
 40
1
 40
1
 40
1
 40
1
 10
-109.419868
 20
54.019649
 30
0.0
 10
-109.291612
 20
54.076895
 30
0.0
 10
-109.152735
 20
54.106482
 30
0.0
 10
-109.012283
 20
54.106482
 30
0.0
  0
LWPOLYLINE
  5
170
100
AcDbEntity
  8
0
 62
7
100
AcDbPolyline
 90
1
 70
1
 10
10.724997
 20
47.624977
 30
0.0
  0
SPLINE
  5
171
100
AcDbEntity
  8
0
 62
7
100
AcDbSpline
 70
8
 71
3
 72
8
 73
4
 74
0
 40
0
 40
0
 40
0
 40
0
 40
1
 40
1
 40
1
 40
1
 10
-87.474975
 20
54.106482
 30
0.0
 10
-86.922691
 20
54.106482
 30
0.0
 10
-86.474976
 20
54.554197
 30
0.0
 10
-86.474976
 20
55.106482
 30
0.0
  0
LWPOLYLINE
  5
172
100
AcDbEntity
  8
0
 62
7
100
AcDbPolyline
 90
2
 70
0
 10
-109.012283
 20
54.106482
 30
0.0
 10
-87.474975
 20
54.106482
 30
0.0
  0
SPLINE
  5
173
100
AcDbEntity
  8
0
 62
7
100
AcDbSpline
 70
8
 71
3
 72
8
 73
4
 74
0
 40
0
 40
0
 40
0
 40
0
 40
1
 40
1
 40
1
 40
1
 10
-86.474976
 20
61.426201
 30
0.0
 10
-86.474976
 20
61.879581
 30
0.0
 10
-86.169958
 20
62.276232
 30
0.0
 10
-85.731783
 20
62.392663
 30
0.0
  0
SPLINE
  5
174
100
AcDbEntity
  8
0
 62
7
100
AcDbSpline
 70
8
 71
3
 72
8
 73
4
 74
0
 40
0
 40
0
 40
0
 40
0
 40
1
 40
1
 40
1
 40
1
 10
-85.731783
 20
62.392663
 30
0.0
 10
-54.776110
 20
70.618158
 30
0.0
 10
-22.045827
 20
69.185486
 30
0.0
 10
8.072735
 20
58.286647
 30
0.0
  0
SPLINE
  5
175
100
AcDbEntity
  8
0
 62
7
100
AcDbSpline
 70
8
 71
3
 72
8
 73
4
 74
0
 40
0
 40
0
 40
0
 40
0
 40
1
 40
1
 40
1
 40
1
 10
8.072735
 20
58.286647
 30
0.0
 10
9.251164
 20
57.860215
 30
0.0
 10
10.424448
 20
57.419698
 30
0.0
 10
11.592336
 20
56.965191
 30
0.0
  0
SPLINE
  5
176
100
AcDbEntity
  8
0
 62
7
100
AcDbSpline
 70
8
 71
3
 72
8
 73
4
 74
0
 40
0
 40
0
 40
0
 40
0
 40
1
 40
1
 40
1
 40
1
 10
11.592336
 20
56.965191
 30
0.0
 10
17.570151
 20
54.638805
 30
0.0
 10
23.399878
 20
51.948496
 30
0.0
 10
29.048778
 20
48.909374
 30
0.0
  0
SPLINE
  5
177
100
AcDbEntity
  8
0
 62
7
100
AcDbSpline
 70
8
 71
3
 72
8
 73
4
 74
0
 40
0
 40
0
 40
0
 40
0
 40
1
 40
1
 40
1
 40
1
 10
29.048778
 20
48.909374
 30
0.0
 10
29.372863
 20
48.735015
 30
0.0
 10
29.574992
 20
48.396744
 30
0.0
 10
29.574992
 20
48.028734
 30
0.0
  0
LWPOLYLINE
  5
178
100
AcDbEntity
  8
0
 62
7
100
AcDbPolyline
 90
2
 70
0
 10
-86.474976
 20
55.106482
 30
0.0
 10
-86.474976
 20
61.426201
 30
0.0
  0
SPLINE
  5
179
100
AcDbEntity
  8
0
 62
7
100
AcDbSpline
 70
8
 71
3
 72
8
 73
4
 74
0
 40
0
 40
0
 40
0
 40
0
 40
1
 40
1
 40
1
 40
1
 10
29.574992
 20
-9.524997
 30
0.0
 10
29.574992
 20
-9.790214
 30
0.0
 10
29.469635
 20
-10.044568
 30
0.0
 10
29.282099
 20
-10.232104
 30
0.0
  0
SPLINE
  5
17a
100
AcDbEntity
  8
0
 62
7
100
AcDbSpline
 70
8
 71
3
 72
8
 73
4
 74
0
 40
0
 40
0
 40
0
 40
0
 40
1
 40
1
 40
1
 40
1
 10
29.282099
 20
-10.232104
 30
0.0
 10
29.094562
 20
-10.419640
 30
0.0
 10
28.840208
 20
-10.524997
 30
0.0
 10
28.574992
 20
-10.524997
 30
0.0
  0
LWPOLYLINE
  5
17b
100
AcDbEntity
  8
0
 62
7
100
AcDbPolyline
 90
2
 70
0
 10
29.574992
 20
48.028734
 30
0.0
 10
29.574992
 20
-9.524997
 30
0.0
  0
SPLINE
  5
17c
100
AcDbEntity
  8
0
 62
7
100
AcDbSpline
 70
8
 71
3
 72
8
 73
4
 74
0
 40
0
 40
0
 40
0
 40
0
 40
1
 40
1
 40
1
 40
1
 10
-14.810887
 20
-10.524997
 30
0.0
 10
-15.363172
 20
-10.524997
 30
0.0
 10
-15.810887
 20
-10.972712
 30
0.0
 10
-15.810887
 20
-11.524997
 30
0.0
  0
LWPOLYLINE
  5
17d
100
AcDbEntity
  8
0
 62
7
100
AcDbPolyline
 90
2
 70
0
 10
28.574992
 20
-10.524997
 30
0.0
 10
-14.810887
 20
-10.524997
 30
0.0
  0
SPLINE
  5
17e
100
AcDbEntity
  8
0
 62
7
100
AcDbSpline
 70
8
 71
3
 72
8
 73
4
 74
0
 40
0
 40
0
 40
0
 40
0
 40
1
 40
1
 40
1
 40
1
 10
-15.810887
 20
-17.094823
 30
0.0
 10
-15.810887
 20
-17.647108
 30
0.0
 10
-16.258602
 20
-18.094822
 30
0.0
 10
-16.810887
 20
-18.094823
 30
0.0
  0
LWPOLYLINE
  5
17f
100
AcDbEntity
  8
0
 62
7
100
AcDbPolyline
 90
2
 70
0
 10
-15.810887
 20
-11.524997
 30
0.0
 10
-15.810887
 20
-17.094823
 30
0.0
  0
SPLINE
  5
180
100
AcDbEntity
  8
0
 62
7
100
AcDbSpline
 70
8
 71
3
 72
8
 73
4
 74
0
 40
0
 40
0
 40
0
 40
0
 40
1
 40
1
 40
1
 40
1
 10
-45.385879
 20
-18.094823
 30
0.0
 10
-64.308953
 20
-18.094823
 30
0.0
 10
-82.456987
 20
-25.611985
 30
0.0
 10
-95.837621
 20
-38.992619
 30
0.0
  0
LWPOLYLINE
  5
181
100
AcDbEntity
  8
0
 62
7
100
AcDbPolyline
 90
2
 70
0
 10
-16.810887
 20
-18.094823
 30
0.0
 10
-45.385879
 20
-18.094823
 30
0.0
  0
SPLINE
  5
182
100
AcDbEntity
  8
0
 62
7
100
AcDbSpline
 70
8
 71
3
 72
8
 73
4
 74
0
 40
0
 40
0
 40
0
 40
0
 40
1
 40
1
 40
1
 40
1
 10
-102.572811
 20
-45.727809
 30
0.0
 10
-102.963335
 20
-46.118333
 30
0.0
 10
-103.596500
 20
-46.118333
 30
0.0
 10
-103.987024
 20
-45.727809
 30
0.0
  0
LWPOLYLINE
  5
183
100
AcDbEntity
  8
0
 62
7
100
AcDbPolyline
 90
2
 70
0
 10
-95.837621
 20
-38.992619
 30
0.0
 10
-102.572811
 20
-45.727809
 30
0.0
  0
SPLINE
  5
184
100
AcDbEntity
  8
0
 62
7
100
AcDbSpline
 70
8
 71
3
 72
8
 73
4
 74
0
 40
0
 40
0
 40
0
 40
0
 40
1
 40
1
 40
1
 40
1
 10
-130.927785
 20
-18.787048
 30
0.0
 10
-131.318309
 20
-18.396524
 30
0.0
 10
-131.318309
 20
-17.763359
 30
0.0
 10
-130.927785
 20
-17.372835
 30
0.0
  0
LWPOLYLINE
  5
185
100
AcDbEntity
  8
0
 62
7
100
AcDbPolyline
 90
2
 70
0
 10
-103.987024
 20
-45.727809
 30
0.0
 10
-130.927785
 20
-18.787048
 30
0.0
  0
SPLINE
  5
186
100
AcDbEntity
  8
0
 62
7
100
AcDbSpline
 70
8
 71
3
 72
8
 73
4
 74
0
 40
0
 40
0
 40
0
 40
0
 40
1
 40
1
 40
1
 40
1
 10
-124.192595
 20
-10.637645
 30
0.0
 10
-122.690230
 20
-9.135280
 30
0.0
 10
-121.145211
 20
-7.676183
 30
0.0
 10
-119.559431
 20
-6.262145
 30
0.0
  0
SPLINE
  5
187
100
AcDbEntity
  8
0
 62
7
100
AcDbSpline
 70
8
 71
3
 72
8
 73
4
 74
0
 40
0
 40
0
 40
0
 40
0
 40
1
 40
1
 40
1
 40
1
 10
-119.559431
 20
-6.262145
 30
0.0
 10
-119.346649
 20
-6.072407
 30
0.0
 10
-119.224967
 20
-5.800869
 30
0.0
 10
-119.224966
 20
-5.515778
 30
0.0
  0
LWPOLYLINE
  5
188
100
AcDbEntity
  8
0
 62
7
100
AcDbPolyline
 90
2
 70
0
 10
-130.927785
 20
-17.372835
 30
0.0
 10
-124.192595
 20
-10.637645
 30
0.0
  0
SPLINE
  5
189
100
AcDbEntity
  8
0
 62
7
100
AcDbSpline
 70
8
 71
3
 72
8
 73
4
 74
0
 40
0
 40
0
 40
0
 40
0
 40
1
 40
1
 40
1
 40
1
 10
-119.224966
 20
48.626380
 30
0.0
 10
-119.224966
 20
48.997312
 30
0.0
 10
-119.019645
 20
49.337770
 30
0.0
 10
-118.691567
 20
49.510848
 30
0.0
  0
SPLINE
  5
18a
100
AcDbEntity
  8
0
 62
7
100
AcDbSpline
 70
8
 71
3
 72
8
 73
4
 74
0
 40
0
 40
0
 40
0
 40
0
 40
1
 40
1
 40
1
 40
1
 10
-118.691567
 20
49.510848
 30
0.0
 10
-115.651161
 20
51.114811
 30
0.0
 10
-112.558930
 20
52.618555
 30
0.0
 10
-109.419868
 20
54.019649
 30
0.0
  0
LWPOLYLINE
  5
18b
100
AcDbEntity
  8
0
 62
7
100
AcDbPolyline
 90
2
 70
0
 10
-119.224966
 20
-5.515778
 30
0.0
 10
-119.224966
 20
48.626380
 30
0.0
  0
SPLINE
  5
18c
100
AcDbEntity
  8
0
 62
7
100
AcDbSpline
 70
8
 71
3
 72
8
 73
4
 74
0
 40
0
 40
0
 40
0
 40
0
 40
1
 40
1
 40
1
 40
1
 10
51.982279
 20
9.525099
 30
0.0
 10
51.981785
 20
9.954146
 30
0.0
 10
52.210396
 20
10.350813
 30
0.0
 10
52.581879
 20
10.565479
 30
0.0
  0
SPLINE
  5
18d
100
AcDbEntity
  8
0
 62
7
100
AcDbSpline
 70
8
 71
3
 72
8
 73
4
 74
0
 40
0
 40
0
 40
0
 40
0
 40
1
 40
1
 40
1
 40
1
 10
52.581879
 20
10.565479
 30
0.0
 10
52.953363
 20
10.780146
 30
0.0
 10
53.411192
 20
10.780146
 30
0.0
 10
53.782676
 20
10.565479
 30
0.0
  0
SPLINE
  5
18e
100
AcDbEntity
  8
0
 62
7
100
AcDbSpline
 70
8
 71
3
 72
8
 73
4
 74
0
 40
0
 40
0
 40
0
 40
0
 40
1
 40
1
 40
1
 40
1
 10
53.782676
 20
10.565479
 30
0.0
 10
54.154159
 20
10.350813
 30
0.0
 10
54.382770
 20
9.954146
 30
0.0
 10
54.382276
 20
9.525099
 30
0.0
  0
SPLINE
  5
18f
100
AcDbEntity
  8
0
 62
7
100
AcDbSpline
 70
8
 71
3
 72
8
 73
4
 74
0
 40
0
 40
0
 40
0
 40
0
 40
1
 40
1
 40
1
 40
1
 10
54.382276
 20
9.525099
 30
0.0
 10
54.382770
 20
9.096052
 30
0.0
 10
54.154159
 20
8.699385
 30
0.0
 10
53.782676
 20
8.484719
 30
0.0
  0
SPLINE
  5
190
100
AcDbEntity
  8
0
 62
7
100
AcDbSpline
 70
8
 71
3
 72
8
 73
4
 74
0
 40
0
 40
0
 40
0
 40
0
 40
1
 40
1
 40
1
 40
1
 10
53.782676
 20
8.484719
 30
0.0
 10
53.411192
 20
8.270053
 30
0.0
 10
52.953363
 20
8.270053
 30
0.0
 10
52.581879
 20
8.484719
 30
0.0
  0
SPLINE
  5
191
100
AcDbEntity
  8
0
 62
7
100
AcDbSpline
 70
8
 71
3
 72
8
 73
4
 74
0
 40
0
 40
0
 40
0
 40
0
 40
1
 40
1
 40
1
 40
1
 10
52.581879
 20
8.484719
 30
0.0
 10
52.210396
 20
8.699385
 30
0.0
 10
51.981785
 20
9.096052
 30
0.0
 10
51.982279
 20
9.525099
 30
0.0
  0
LWPOLYLINE
  5
192
100
AcDbEntity
  8
0
 62
7
100
AcDbPolyline
 90
1
 70
1
 10
-109.419868
 20
54.019649
 30
0.0
  0
SPLINE
  5
193
100
AcDbEntity
  8
0
 62
7
100
AcDbSpline
 70
8
 71
3
 72
8
 73
4
 74
0
 40
0
 40
0
 40
0
 40
0
 40
1
 40
1
 40
1
 40
1
 10
68.507273
 20
49.850093
 30
0.0
 10
68.507273
 20
50.278812
 30
0.0
 10
68.735992
 20
50.674965
 30
0.0
 10
69.107273
 20
50.889324
 30
0.0
  0
SPLINE
  5
194
100
AcDbEntity
  8
0
 62
7
100
AcDbSpline
 70
8
 71
3
 72
8
 73
4
 74
0
 40
0
 40
0
 40
0
 40
0
 40
1
 40
1
 40
1
 40
1
 10
69.107273
 20
50.889324
 30
0.0
 10
69.478555
 20
51.103684
 30
0.0
 10
69.935992
 20
51.103684
 30
0.0
 10
70.307274
 20
50.889324
 30
0.0
  0
SPLINE
  5
195
100
AcDbEntity
  8
0
 62
7
100
AcDbSpline
 70
8
 71
3
 72
8
 73
4
 74
0
 40
0
 40
0
 40
0
 40
0
 40
1
 40
1
 40
1
 40
1
 10
70.307274
 20
50.889324
 30
0.0
 10
70.678555
 20
50.674965
 30
0.0
 10
70.907274
 20
50.278812
 30
0.0
 10
70.907274
 20
49.850093
 30
0.0
  0
SPLINE
  5
196
100
AcDbEntity
  8
0
 62
7
100
AcDbSpline
 70
8
 71
3
 72
8
 73
4
 74
0
 40
0
 40
0
 40
0
 40
0
 40
1
 40
1
 40
1
 40
1
 10
70.907274
 20
49.850093
 30
0.0
 10
70.907274
 20
49.421375
 30
0.0
 10
70.678555
 20
49.025222
 30
0.0
 10
70.307274
 20
48.810863
 30
0.0
  0
SPLINE
  5
197
100
AcDbEntity
  8
0
 62
7
100
AcDbSpline
 70
8
 71
3
 72
8
 73
4
 74
0
 40
0
 40
0
 40
0
 40
0
 40
1
 40
1
 40
1
 40
1
 10
70.307274
 20
48.810863
 30
0.0
 10
69.935992
 20
48.596503
 30
0.0
 10
69.478555
 20
48.596503
 30
0.0
 10
69.107273
 20
48.810863
 30
0.0
  0
SPLINE
  5
198
100
AcDbEntity
  8
0
 62
7
100
AcDbSpline
 70
8
 71
3
 72
8
 73
4
 74
0
 40
0
 40
0
 40
0
 40
0
 40
1
 40
1
 40
1
 40
1
 10
69.107273
 20
48.810863
 30
0.0
 10
68.735992
 20
49.025222
 30
0.0
 10
68.507273
 20
49.421375
 30
0.0
 10
68.507273
 20
49.850093
 30
0.0
  0
LWPOLYLINE
  5
199
100
AcDbEntity
  8
0
 62
7
100
AcDbPolyline
 90
1
 70
1
 10
51.982279
 20
9.525099
 30
0.0
  0
SPLINE
  5
19a
100
AcDbEntity
  8
0
 62
7
100
AcDbSpline
 70
8
 71
3
 72
8
 73
4
 74
0
 40
0
 40
0
 40
0
 40
0
 40
1
 40
1
 40
1
 40
1
 10
118.883402
 20
1.630729
 30
0.0
 10
118.883402
 20
2.059447
 30
0.0
 10
119.112121
 20
2.455600
 30
0.0
 10
119.483402
 20
2.669959
 30
0.0
  0
SPLINE
  5
19b
100
AcDbEntity
  8
0
 62
7
100
AcDbSpline
 70
8
 71
3
 72
8
 73
4
 74
0
 40
0
 40
0
 40
0
 40
0
 40
1
 40
1
 40
1
 40
1
 10
119.483402
 20
2.669959
 30
0.0
 10
119.854683
 20
2.884319
 30
0.0
 10
120.312121
 20
2.884319
 30
0.0
 10
120.683402
 20
2.669959
 30
0.0
  0
SPLINE
  5
19c
100
AcDbEntity
  8
0
 62
7
100
AcDbSpline
 70
8
 71
3
 72
8
 73
4
 74
0
 40
0
 40
0
 40
0
 40
0
 40
1
 40
1
 40
1
 40
1
 10
120.683402
 20
2.669959
 30
0.0
 10
121.054684
 20
2.455600
 30
0.0
 10
121.283402
 20
2.059447
 30
0.0
 10
121.283402
 20
1.630729
 30
0.0
  0
SPLINE
  5
19d
100
AcDbEntity
  8
0
 62
7
100
AcDbSpline
 70
8
 71
3
 72
8
 73
4
 74
0
 40
0
 40
0
 40
0
 40
0
 40
1
 40
1
 40
1
 40
1
 10
121.283402
 20
1.630729
 30
0.0
 10
121.283402
 20
1.202010
 30
0.0
 10
121.054684
 20
0.805857
 30
0.0
 10
120.683402
 20
0.591498
 30
0.0
  0
SPLINE
  5
19e
100
AcDbEntity
  8
0
 62
7
100
AcDbSpline
 70
8
 71
3
 72
8
 73
4
 74
0
 40
0
 40
0
 40
0
 40
0
 40
1
 40
1
 40
1
 40
1
 10
120.683402
 20
0.591498
 30
0.0
 10
120.312121
 20
0.377138
 30
0.0
 10
119.854683
 20
0.377138
 30
0.0
 10
119.483402
 20
0.591498
 30
0.0
  0
SPLINE
  5
19f
100
AcDbEntity
  8
0
 62
7
100
AcDbSpline
 70
8
 71
3
 72
8
 73
4
 74
0
 40
0
 40
0
 40
0
 40
0
 40
1
 40
1
 40
1
 40
1
 10
119.483402
 20
0.591498
 30
0.0
 10
119.112121
 20
0.805857
 30
0.0
 10
118.883402
 20
1.202010
 30
0.0
 10
118.883402
 20
1.630729
 30
0.0
  0
LWPOLYLINE
  5
1a0
100
AcDbEntity
  8
0
 62
7
100
AcDbPolyline
 90
1
 70
1
 10
68.507273
 20
49.850093
 30
0.0
  0
SPLINE
  5
1a1
100
AcDbEntity
  8
0
 62
7
100
AcDbSpline
 70
8
 71
3
 72
8
 73
4
 74
0
 40
0
 40
0
 40
0
 40
0
 40
1
 40
1
 40
1
 40
1
 10
162.814502
 20
-16.566144
 30
0.0
 10
162.814009
 20
-16.137097
 30
0.0
 10
163.042619
 20
-15.740430
 30
0.0
 10
163.414103
 20
-15.525764
 30
0.0
  0
SPLINE
  5
1a2
100
AcDbEntity
  8
0
 62
7
100
AcDbSpline
 70
8
 71
3
 72
8
 73
4
 74
0
 40
0
 40
0
 40
0
 40
0
 40
1
 40
1
 40
1
 40
1
 10
163.414103
 20
-15.525764
 30
0.0
 10
163.785586
 20
-15.311098
 30
0.0
 10
164.243415
 20
-15.311098
 30
0.0
 10
164.614899
 20
-15.525764
 30
0.0
  0
SPLINE
  5
1a3
100
AcDbEntity
  8
0
 62
7
100
AcDbSpline
 70
8
 71
3
 72
8
 73
4
 74
0
 40
0
 40
0
 40
0
 40
0
 40
1
 40
1
 40
1
 40
1
 10
164.614899
 20
-15.525764
 30
0.0
 10
164.986383
 20
-15.740430
 30
0.0
 10
165.214993
 20
-16.137097
 30
0.0
 10
165.214500
 20
-16.566144
 30
0.0
  0
SPLINE
  5
1a4
100
AcDbEntity
  8
0
 62
7
100
AcDbSpline
 70
8
 71
3
 72
8
 73
4
 74
0
 40
0
 40
0
 40
0
 40
0
 40
1
 40
1
 40
1
 40
1
 10
165.214500
 20
-16.566144
 30
0.0
 10
165.214993
 20
-16.995191
 30
0.0
 10
164.986383
 20
-17.391858
 30
0.0
 10
164.614899
 20
-17.606524
 30
0.0
  0
SPLINE
  5
1a5
100
AcDbEntity
  8
0
 62
7
100
AcDbSpline
 70
8
 71
3
 72
8
 73
4
 74
0
 40
0
 40
0
 40
0
 40
0
 40
1
 40
1
 40
1
 40
1
 10
164.614899
 20
-17.606524
 30
0.0
 10
164.243415
 20
-17.821190
 30
0.0
 10
163.785586
 20
-17.821190
 30
0.0
 10
163.414103
 20
-17.606524
 30
0.0
  0
SPLINE
  5
1a6
100
AcDbEntity
  8
0
 62
7
100
AcDbSpline
 70
8
 71
3
 72
8
 73
4
 74
0
 40
0
 40
0
 40
0
 40
0
 40
1
 40
1
 40
1
 40
1
 10
163.414103
 20
-17.606524
 30
0.0
 10
163.042619
 20
-17.391858
 30
0.0
 10
162.814009
 20
-16.995191
 30
0.0
 10
162.814502
 20
-16.566144
 30
0.0
  0
LWPOLYLINE
  5
1a7
100
AcDbEntity
  8
0
 62
7
100
AcDbPolyline
 90
1
 70
1
 10
118.883402
 20
1.630729
 30
0.0
  0
SPLINE
  5
1a8
100
AcDbEntity
  8
0
 62
7
100
AcDbSpline
 70
8
 71
3
 72
8
 73
4
 74
0
 40
0
 40
0
 40
0
 40
0
 40
1
 40
1
 40
1
 40
1
 10
128.182257
 20
60.125092
 30
0.0
 10
128.181764
 20
60.554139
 30
0.0
 10
128.410374
 20
60.950806
 30
0.0
 10
128.781858
 20
61.165472
 30
0.0
  0
SPLINE
  5
1a9
100
AcDbEntity
  8
0
 62
7
100
AcDbSpline
 70
8
 71
3
 72
8
 73
4
 74
0
 40
0
 40
0
 40
0
 40
0
 40
1
 40
1
 40
1
 40
1
 10
128.781858
 20
61.165472
 30
0.0
 10
129.153342
 20
61.380138
 30
0.0
 10
129.611171
 20
61.380138
 30
0.0
 10
129.982654
 20
61.165472
 30
0.0
  0
SPLINE
  5
1aa
100
AcDbEntity
  8
0
 62
7
100
AcDbSpline
 70
8
 71
3
 72
8
 73
4
 74
0
 40
0
 40
0
 40
0
 40
0
 40
1
 40
1
 40
1
 40
1
 10
129.982654
 20
61.165472
 30
0.0
 10
130.354138
 20
60.950806
 30
0.0
 10
130.582748
 20
60.554139
 30
0.0
 10
130.582255
 20
60.125092
 30
0.0
  0
SPLINE
  5
1ab
100
AcDbEntity
  8
0
 62
7
100
AcDbSpline
 70
8
 71
3
 72
8
 73
4
 74
0
 40
0
 40
0
 40
0
 40
0
 40
1
 40
1
 40
1
 40
1
 10
130.582255
 20
60.125092
 30
0.0
 10
130.582748
 20
59.696045
 30
0.0
 10
130.354138
 20
59.299378
 30
0.0
 10
129.982654
 20
59.084711
 30
0.0
  0
SPLINE
  5
1ac
100
AcDbEntity
  8
0
 62
7
100
AcDbSpline
 70
8
 71
3
 72
8
 73
4
 74
0
 40
0
 40
0
 40
0
 40
0
 40
1
 40
1
 40
1
 40
1
 10
129.982654
 20
59.084711
 30
0.0
 10
129.611171
 20
58.870045
 30
0.0
 10
129.153342
 20
58.870045
 30
0.0
 10
128.781858
 20
59.084711
 30
0.0
  0
SPLINE
  5
1ad
100
AcDbEntity
  8
0
 62
7
100
AcDbSpline
 70
8
 71
3
 72
8
 73
4
 74
0
 40
0
 40
0
 40
0
 40
0
 40
1
 40
1
 40
1
 40
1
 10
128.781858
 20
59.084711
 30
0.0
 10
128.410374
 20
59.299378
 30
0.0
 10
128.181764
 20
59.696045
 30
0.0
 10
128.182257
 20
60.125092
 30
0.0
  0
LWPOLYLINE
  5
1ae
100
AcDbEntity
  8
0
 62
7
100
AcDbPolyline
 90
1
 70
1
 10
162.814502
 20
-16.566144
 30
0.0
  0
SPLINE
  5
1af
100
AcDbEntity
  8
0
 62
7
100
AcDbSpline
 70
8
 71
3
 72
8
 73
4
 74
0
 40
0
 40
0
 40
0
 40
0
 40
1
 40
1
 40
1
 40
1
 10
107.601863
 20
25.447402
 30
0.0
 10
107.601863
 20
26.359394
 30
0.0
 10
108.088405
 20
27.202109
 30
0.0
 10
108.878212
 20
27.658105
 30
0.0
  0
SPLINE
  5
1b0
100
AcDbEntity
  8
0
 62
7
100
AcDbSpline
 70
8
 71
3
 72
8
 73
4
 74
0
 40
0
 40
0
 40
0
 40
0
 40
1
 40
1
 40
1
 40
1
 10
108.878212
 20
27.658105
 30
0.0
 10
109.668020
 20
28.114100
 30
0.0
 10
110.641104
 20
28.114100
 30
0.0
 10
111.430912
 20
27.658105
 30
0.0
  0
SPLINE
  5
1b1
100
AcDbEntity
  8
0
 62
7
100
AcDbSpline
 70
8
 71
3
 72
8
 73
4
 74
0
 40
0
 40
0
 40
0
 40
0
 40
1
 40
1
 40
1
 40
1
 10
111.430912
 20
27.658105
 30
0.0
 10
112.220720
 20
27.202109
 30
0.0
 10
112.707261
 20
26.359394
 30
0.0
 10
112.707261
 20
25.447402
 30
0.0
  0
SPLINE
  5
1b2
100
AcDbEntity
  8
0
 62
7
100
AcDbSpline
 70
8
 71
3
 72
8
 73
4
 74
0
 40
0
 40
0
 40
0
 40
0
 40
1
 40
1
 40
1
 40
1
 10
112.707261
 20
25.447402
 30
0.0
 10
112.707261
 20
24.535411
 30
0.0
 10
112.220720
 20
23.692696
 30
0.0
 10
111.430912
 20
23.236700
 30
0.0
  0
SPLINE
  5
1b3
100
AcDbEntity
  8
0
 62
7
100
AcDbSpline
 70
8
 71
3
 72
8
 73
4
 74
0
 40
0
 40
0
 40
0
 40
0
 40
1
 40
1
 40
1
 40
1
 10
111.430912
 20
23.236700
 30
0.0
 10
110.641104
 20
22.780704
 30
0.0
 10
109.668020
 20
22.780704
 30
0.0
 10
108.878212
 20
23.236700
 30
0.0
  0
SPLINE
  5
1b4
100
AcDbEntity
  8
0
 62
7
100
AcDbSpline
 70
8
 71
3
 72
8
 73
4
 74
0
 40
0
 40
0
 40
0
 40
0
 40
1
 40
1
 40
1
 40
1
 10
108.878212
 20
23.236700
 30
0.0
 10
108.088405
 20
23.692696
 30
0.0
 10
107.601863
 20
24.535411
 30
0.0
 10
107.601863
 20
25.447402
 30
0.0
  0
LWPOLYLINE
  5
1b5
100
AcDbEntity
  8
0
 62
7
100
AcDbPolyline
 90
1
 70
1
 10
128.182257
 20
60.125092
 30
0.0
  0
SPLINE
  5
1b6
100
AcDbEntity
  8
0
 62
7
100
AcDbSpline
 70
8
 71
3
 72
8
 73
4
 74
0
 40
0
 40
0
 40
0
 40
0
 40
1
 40
1
 40
1
 40
1
 10
122.601858
 20
10.447410
 30
0.0
 10
122.601858
 20
11.359402
 30
0.0
 10
123.088399
 20
12.202117
 30
0.0
 10
123.878207
 20
12.658112
 30
0.0
  0
SPLINE
  5
1b7
100
AcDbEntity
  8
0
 62
7
100
AcDbSpline
 70
8
 71
3
 72
8
 73
4
 74
0
 40
0
 40
0
 40
0
 40
0
 40
1
 40
1
 40
1
 40
1
 10
123.878207
 20
12.658112
 30
0.0
 10
124.668015
 20
13.114108
 30
0.0
 10
125.641099
 20
13.114108
 30
0.0
 10
126.430907
 20
12.658112
 30
0.0
  0
SPLINE
  5
1b8
100
AcDbEntity
  8
0
 62
7
100
AcDbSpline
 70
8
 71
3
 72
8
 73
4
 74
0
 40
0
 40
0
 40
0
 40
0
 40
1
 40
1
 40
1
 40
1
 10
126.430907
 20
12.658112
 30
0.0
 10
127.220715
 20
12.202117
 30
0.0
 10
127.707256
 20
11.359402
 30
0.0
 10
127.707256
 20
10.447410
 30
0.0
  0
SPLINE
  5
1b9
100
AcDbEntity
  8
0
 62
7
100
AcDbSpline
 70
8
 71
3
 72
8
 73
4
 74
0
 40
0
 40
0
 40
0
 40
0
 40
1
 40
1
 40
1
 40
1
 10
127.707256
 20
10.447410
 30
0.0
 10
127.707256
 20
9.535418
 30
0.0
 10
127.220715
 20
8.692703
 30
0.0
 10
126.430907
 20
8.236708
 30
0.0
  0
SPLINE
  5
1ba
100
AcDbEntity
  8
0
 62
7
100
AcDbSpline
 70
8
 71
3
 72
8
 73
4
 74
0
 40
0
 40
0
 40
0
 40
0
 40
1
 40
1
 40
1
 40
1
 10
126.430907
 20
8.236708
 30
0.0
 10
125.641099
 20
7.780712
 30
0.0
 10
124.668015
 20
7.780712
 30
0.0
 10
123.878207
 20
8.236708
 30
0.0
  0
SPLINE
  5
1bb
100
AcDbEntity
  8
0
 62
7
100
AcDbSpline
 70
8
 71
3
 72
8
 73
4
 74
0
 40
0
 40
0
 40
0
 40
0
 40
1
 40
1
 40
1
 40
1
 10
123.878207
 20
8.236708
 30
0.0
 10
123.088399
 20
8.692703
 30
0.0
 10
122.601858
 20
9.535418
 30
0.0
 10
122.601858
 20
10.447410
 30
0.0
  0
LWPOLYLINE
  5
1bc
100
AcDbEntity
  8
0
 62
7
100
AcDbPolyline
 90
1
 70
1
 10
107.601863
 20
25.447402
 30
0.0
  0
SPLINE
  5
1bd
100
AcDbEntity
  8
0
 62
7
100
AcDbSpline
 70
8
 71
3
 72
8
 73
4
 74
0
 40
0
 40
0
 40
0
 40
0
 40
1
 40
1
 40
1
 40
1
 10
137.601853
 20
25.447402
 30
0.0
 10
137.601853
 20
26.359394
 30
0.0
 10
138.088394
 20
27.202109
 30
0.0
 10
138.878202
 20
27.658105
 30
0.0
  0
SPLINE
  5
1be
100
AcDbEntity
  8
0
 62
7
100
AcDbSpline
 70
8
 71
3
 72
8
 73
4
 74
0
 40
0
 40
0
 40
0
 40
0
 40
1
 40
1
 40
1
 40
1
 10
138.878202
 20
27.658105
 30
0.0
 10
139.668010
 20
28.114100
 30
0.0
 10
140.641094
 20
28.114100
 30
0.0
 10
141.430902
 20
27.658105
 30
0.0
  0
SPLINE
  5
1bf
100
AcDbEntity
  8
0
 62
7
100
AcDbSpline
 70
8
 71
3
 72
8
 73
4
 74
0
 40
0
 40
0
 40
0
 40
0
 40
1
 40
1
 40
1
 40
1
 10
141.430902
 20
27.658105
 30
0.0
 10
142.220709
 20
27.202109
 30
0.0
 10
142.707251
 20
26.359394
 30
0.0
 10
142.707251
 20
25.447402
 30
0.0
  0
SPLINE
  5
1c0
100
AcDbEntity
  8
0
 62
7
100
AcDbSpline
 70
8
 71
3
 72
8
 73
4
 74
0
 40
0
 40
0
 40
0
 40
0
 40
1
 40
1
 40
1
 40
1
 10
142.707251
 20
25.447402
 30
0.0
 10
142.707251
 20
24.535411
 30
0.0
 10
142.220710
 20
23.692696
 30
0.0
 10
141.430902
 20
23.236700
 30
0.0
  0
SPLINE
  5
1c1
100
AcDbEntity
  8
0
 62
7
100
AcDbSpline
 70
8
 71
3
 72
8
 73
4
 74
0
 40
0
 40
0
 40
0
 40
0
 40
1
 40
1
 40
1
 40
1
 10
141.430902
 20
23.236700
 30
0.0
 10
140.641094
 20
22.780704
 30
0.0
 10
139.668010
 20
22.780704
 30
0.0
 10
138.878202
 20
23.236700
 30
0.0
  0
SPLINE
  5
1c2
100
AcDbEntity
  8
0
 62
7
100
AcDbSpline
 70
8
 71
3
 72
8
 73
4
 74
0
 40
0
 40
0
 40
0
 40
0
 40
1
 40
1
 40
1
 40
1
 10
138.878202
 20
23.236700
 30
0.0
 10
138.088394
 20
23.692696
 30
0.0
 10
137.601853
 20
24.535411
 30
0.0
 10
137.601853
 20
25.447402
 30
0.0
  0
LWPOLYLINE
  5
1c3
100
AcDbEntity
  8
0
 62
7
100
AcDbPolyline
 90
1
 70
1
 10
122.601858
 20
10.447410
 30
0.0
  0
SPLINE
  5
1c4
100
AcDbEntity
  8
0
 62
7
100
AcDbSpline
 70
8
 71
3
 72
8
 73
4
 74
0
 40
0
 40
0
 40
0
 40
0
 40
1
 40
1
 40
1
 40
1
 10
90.143638
 20
-0.252178
 30
0.0
 10
90.143638
 20
2.427313
 30
0.0
 10
91.573129
 20
4.903265
 30
0.0
 10
93.893637
 20
6.243011
 30
0.0
  0
SPLINE
  5
1c5
100
AcDbEntity
  8
0
 62
7
100
AcDbSpline
 70
8
 71
3
 72
8
 73
4
 74
0
 40
0
 40
0
 40
0
 40
0
 40
1
 40
1
 40
1
 40
1
 10
93.893637
 20
6.243011
 30
0.0
 10
96.214144
 20
7.582757
 30
0.0
 10
99.073127
 20
7.582757
 30
0.0
 10
101.393634
 20
6.243011
 30
0.0
  0
SPLINE
  5
1c6
100
AcDbEntity
  8
0
 62
7
100
AcDbSpline
 70
8
 71
3
 72
8
 73
4
 74
0
 40
0
 40
0
 40
0
 40
0
 40
1
 40
1
 40
1
 40
1
 10
101.393634
 20
6.243011
 30
0.0
 10
103.714142
 20
4.903265
 30
0.0
 10
105.143633
 20
2.427313
 30
0.0
 10
105.143633
 20
-0.252178
 30
0.0
  0
SPLINE
  5
1c7
100
AcDbEntity
  8
0
 62
7
100
AcDbSpline
 70
8
 71
3
 72
8
 73
4
 74
0
 40
0
 40
0
 40
0
 40
0
 40
1
 40
1
 40
1
 40
1
 10
105.143633
 20
-0.252178
 30
0.0
 10
105.143633
 20
-2.931670
 30
0.0
 10
103.714142
 20
-5.407622
 30
0.0
 10
101.393634
 20
-6.747367
 30
0.0
  0
SPLINE
  5
1c8
100
AcDbEntity
  8
0
 62
7
100
AcDbSpline
 70
8
 71
3
 72
8
 73
4
 74
0
 40
0
 40
0
 40
0
 40
0
 40
1
 40
1
 40
1
 40
1
 10
101.393634
 20
-6.747367
 30
0.0
 10
99.073127
 20
-8.087113
 30
0.0
 10
96.214144
 20
-8.087113
 30
0.0
 10
93.893637
 20
-6.747367
 30
0.0
  0
SPLINE
  5
1c9
100
AcDbEntity
  8
0
 62
7
100
AcDbSpline
 70
8
 71
3
 72
8
 73
4
 74
0
 40
0
 40
0
 40
0
 40
0
 40
1
 40
1
 40
1
 40
1
 10
93.893637
 20
-6.747367
 30
0.0
 10
91.573129
 20
-5.407622
 30
0.0
 10
90.143638
 20
-2.931670
 30
0.0
 10
90.143638
 20
-0.252178
 30
0.0
  0
LWPOLYLINE
  5
1ca
100
AcDbEntity
  8
0
 62
7
100
AcDbPolyline
 90
1
 70
1
 10
137.601853
 20
25.447402
 30
0.0
  0
SPLINE
  5
1cb
100
AcDbEntity
  8
0
 62
7
100
AcDbSpline
 70
8
 71
3
 72
8
 73
4
 74
0
 40
0
 40
0
 40
0
 40
0
 40
1
 40
1
 40
1
 40
1
 10
44.761219
 20
27.504378
 30
0.0
 10
44.761219
 20
30.183870
 30
0.0
 10
46.190711
 20
32.659822
 30
0.0
 10
48.511218
 20
33.999568
 30
0.0
  0
SPLINE
  5
1cc
100
AcDbEntity
  8
0
 62
7
100
AcDbSpline
 70
8
 71
3
 72
8
 73
4
 74
0
 40
0
 40
0
 40
0
 40
0
 40
1
 40
1
 40
1
 40
1
 10
48.511218
 20
33.999568
 30
0.0
 10
50.831725
 20
35.339313
 30
0.0
 10
53.690708
 20
35.339313
 30
0.0
 10
56.011216
 20
33.999568
 30
0.0
  0
SPLINE
  5
1cd
100
AcDbEntity
  8
0
 62
7
100
AcDbSpline
 70
8
 71
3
 72
8
 73
4
 74
0
 40
0
 40
0
 40
0
 40
0
 40
1
 40
1
 40
1
 40
1
 10
56.011216
 20
33.999568
 30
0.0
 10
58.331723
 20
32.659822
 30
0.0
 10
59.761214
 20
30.183870
 30
0.0
 10
59.761214
 20
27.504378
 30
0.0
  0
SPLINE
  5
1ce
100
AcDbEntity
  8
0
 62
7
100
AcDbSpline
 70
8
 71
3
 72
8
 73
4
 74
0
 40
0
 40
0
 40
0
 40
0
 40
1
 40
1
 40
1
 40
1
 10
59.761214
 20
27.504378
 30
0.0
 10
59.761214
 20
24.824887
 30
0.0
 10
58.331723
 20
22.348935
 30
0.0
 10
56.011216
 20
21.009189
 30
0.0
  0
SPLINE
  5
1cf
100
AcDbEntity
  8
0
 62
7
100
AcDbSpline
 70
8
 71
3
 72
8
 73
4
 74
0
 40
0
 40
0
 40
0
 40
0
 40
1
 40
1
 40
1
 40
1
 10
56.011216
 20
21.009189
 30
0.0
 10
53.690708
 20
19.669444
 30
0.0
 10
50.831725
 20
19.669444
 30
0.0
 10
48.511218
 20
21.009189
 30
0.0
  0
SPLINE
  5
1d0
100
AcDbEntity
  8
0
 62
7
100
AcDbSpline
 70
8
 71
3
 72
8
 73
4
 74
0
 40
0
 40
0
 40
0
 40
0
 40
1
 40
1
 40
1
 40
1
 10
48.511218
 20
21.009189
 30
0.0
 10
46.190711
 20
22.348935
 30
0.0
 10
44.761219
 20
24.824887
 30
0.0
 10
44.761219
 20
27.504378
 30
0.0
  0
LWPOLYLINE
  5
1d1
100
AcDbEntity
  8
0
 62
7
100
AcDbPolyline
 90
1
 70
1
 10
90.143638
 20
-0.252178
 30
0.0
  0
SPLINE
  5
1d2
100
AcDbEntity
  8
0
 62
7
100
AcDbSpline
 70
8
 71
3
 72
8
 73
4
 74
0
 40
0
 40
0
 40
0
 40
0
 40
1
 40
1
 40
1
 40
1
 10
134.607807
 20
-8.111941
 30
0.0
 10
134.607807
 20
-5.432450
 30
0.0
 10
136.037299
 20
-2.956498
 30
0.0
 10
138.357806
 20
-1.616752
 30
0.0
  0
SPLINE
  5
1d3
100
AcDbEntity
  8
0
 62
7
100
AcDbSpline
 70
8
 71
3
 72
8
 73
4
 74
0
 40
0
 40
0
 40
0
 40
0
 40
1
 40
1
 40
1
 40
1
 10
138.357806
 20
-1.616752
 30
0.0
 10
140.678313
 20
-0.277007
 30
0.0
 10
143.537296
 20
-0.277007
 30
0.0
 10
145.857803
 20
-1.616752
 30
0.0
  0
SPLINE
  5
1d4
100
AcDbEntity
  8
0
 62
7
100
AcDbSpline
 70
8
 71
3
 72
8
 73
4
 74
0
 40
0
 40
0
 40
0
 40
0
 40
1
 40
1
 40
1
 40
1
 10
145.857803
 20
-1.616752
 30
0.0
 10
148.178311
 20
-2.956498
 30
0.0
 10
149.607802
 20
-5.432450
 30
0.0
 10
149.607802
 20
-8.111941
 30
0.0
  0
SPLINE
  5
1d5
100
AcDbEntity
  8
0
 62
7
100
AcDbSpline
 70
8
 71
3
 72
8
 73
4
 74
0
 40
0
 40
0
 40
0
 40
0
 40
1
 40
1
 40
1
 40
1
 10
149.607802
 20
-8.111941
 30
0.0
 10
149.607802
 20
-10.791433
 30
0.0
 10
148.178311
 20
-13.267385
 30
0.0
 10
145.857803
 20
-14.607130
 30
0.0
  0
SPLINE
  5
1d6
100
AcDbEntity
  8
0
 62
7
100
AcDbSpline
 70
8
 71
3
 72
8
 73
4
 74
0
 40
0
 40
0
 40
0
 40
0
 40
1
 40
1
 40
1
 40
1
 10
145.857803
 20
-14.607130
 30
0.0
 10
143.537296
 20
-15.946876
 30
0.0
 10
140.678313
 20
-15.946876
 30
0.0
 10
138.357806
 20
-14.607130
 30
0.0
  0
SPLINE
  5
1d7
100
AcDbEntity
  8
0
 62
7
100
AcDbSpline
 70
8
 71
3
 72
8
 73
4
 74
0
 40
0
 40
0
 40
0
 40
0
 40
1
 40
1
 40
1
 40
1
 10
138.357806
 20
-14.607130
 30
0.0
 10
136.037299
 20
-13.267385
 30
0.0
 10
134.607807
 20
-10.791433
 30
0.0
 10
134.607807
 20
-8.111941
 30
0.0
  0
LWPOLYLINE
  5
1d8
100
AcDbEntity
  8
0
 62
7
100
AcDbPolyline
 90
1
 70
1
 10
44.761219
 20
27.504378
 30
0.0
  0
SPLINE
  5
1d9
100
AcDbEntity
  8
0
 62
7
100
AcDbSpline
 70
8
 71
3
 72
8
 73
4
 74
0
 40
0
 40
0
 40
0
 40
0
 40
1
 40
1
 40
1
 40
1
 10
117.771216
 20
41.606232
 30
0.0
 10
117.771216
 20
44.285723
 30
0.0
 10
119.200707
 20
46.761675
 30
0.0
 10
121.521214
 20
48.101421
 30
0.0
  0
SPLINE
  5
1da
100
AcDbEntity
  8
0
 62
7
100
AcDbSpline
 70
8
 71
3
 72
8
 73
4
 74
0
 40
0
 40
0
 40
0
 40
0
 40
1
 40
1
 40
1
 40
1
 10
121.521214
 20
48.101421
 30
0.0
 10
123.841722
 20
49.441167
 30
0.0
 10
126.700705
 20
49.441167
 30
0.0
 10
129.021212
 20
48.101421
 30
0.0
  0
SPLINE
  5
1db
100
AcDbEntity
  8
0
 62
7
100
AcDbSpline
 70
8
 71
3
 72
8
 73
4
 74
0
 40
0
 40
0
 40
0
 40
0
 40
1
 40
1
 40
1
 40
1
 10
129.021212
 20
48.101421
 30
0.0
 10
131.341719
 20
46.761675
 30
0.0
 10
132.771211
 20
44.285723
 30
0.0
 10
132.771211
 20
41.606232
 30
0.0
  0
SPLINE
  5
1dc
100
AcDbEntity
  8
0
 62
7
100
AcDbSpline
 70
8
 71
3
 72
8
 73
4
 74
0
 40
0
 40
0
 40
0
 40
0
 40
1
 40
1
 40
1
 40
1
 10
132.771211
 20
41.606232
 30
0.0
 10
132.771211
 20
38.926741
 30
0.0
 10
131.341719
 20
36.450789
 30
0.0
 10
129.021212
 20
35.111043
 30
0.0
  0
SPLINE
  5
1dd
100
AcDbEntity
  8
0
 62
7
100
AcDbSpline
 70
8
 71
3
 72
8
 73
4
 74
0
 40
0
 40
0
 40
0
 40
0
 40
1
 40
1
 40
1
 40
1
 10
129.021212
 20
35.111043
 30
0.0
 10
126.700705
 20
33.771297
 30
0.0
 10
123.841722
 20
33.771297
 30
0.0
 10
121.521214
 20
35.111043
 30
0.0
  0
SPLINE
  5
1de
100
AcDbEntity
  8
0
 62
7
100
AcDbSpline
 70
8
 71
3
 72
8
 73
4
 74
0
 40
0
 40
0
 40
0
 40
0
 40
1
 40
1
 40
1
 40
1
 10
121.521214
 20
35.111043
 30
0.0
 10
119.200707
 20
36.450789
 30
0.0
 10
117.771215
 20
38.926741
 30
0.0
 10
117.771216
 20
41.606232
 30
0.0
  0
LWPOLYLINE
  5
1df
100
AcDbEntity
  8
0
 62
7
100
AcDbPolyline
 90
1
 70
1
 10
134.607807
 20
-8.111941
 30
0.0
  0
SPLINE
  5
1e0
100
AcDbEntity
  8
0
 62
7
100
AcDbSpline
 70
8
 71
3
 72
8
 73
4
 74
0
 40
0
 40
0
 40
0
 40
0
 40
1
 40
1
 40
1
 40
1
 10
92.601865
 20
40.447397
 30
0.0
 10
92.601865
 20
41.359389
 30
0.0
 10
93.088407
 20
42.202104
 30
0.0
 10
93.878215
 20
42.658099
 30
0.0
  0
SPLINE
  5
1e1
100
AcDbEntity
  8
0
 62
7
100
AcDbSpline
 70
8
 71
3
 72
8
 73
4
 74
0
 40
0
 40
0
 40
0
 40
0
 40
1
 40
1
 40
1
 40
1
 10
93.878215
 20
42.658099
 30
0.0
 10
94.668023
 20
43.114095
 30
0.0
 10
95.641106
 20
43.114095
 30
0.0
 10
96.430914
 20
42.658099
 30
0.0
  0
SPLINE
  5
1e2
100
AcDbEntity
  8
0
 62
7
100
AcDbSpline
 70
8
 71
3
 72
8
 73
4
 74
0
 40
0
 40
0
 40
0
 40
0
 40
1
 40
1
 40
1
 40
1
 10
96.430914
 20
42.658099
 30
0.0
 10
97.220722
 20
42.202104
 30
0.0
 10
97.707264
 20
41.359389
 30
0.0
 10
97.707264
 20
40.447397
 30
0.0
  0
SPLINE
  5
1e3
100
AcDbEntity
  8
0
 62
7
100
AcDbSpline
 70
8
 71
3
 72
8
 73
4
 74
0
 40
0
 40
0
 40
0
 40
0
 40
1
 40
1
 40
1
 40
1
 10
97.707264
 20
40.447397
 30
0.0
 10
97.707264
 20
39.535406
 30
0.0
 10
97.220722
 20
38.692691
 30
0.0
 10
96.430914
 20
38.236695
 30
0.0
  0
SPLINE
  5
1e4
100
AcDbEntity
  8
0
 62
7
100
AcDbSpline
 70
8
 71
3
 72
8
 73
4
 74
0
 40
0
 40
0
 40
0
 40
0
 40
1
 40
1
 40
1
 40
1
 10
96.430914
 20
38.236695
 30
0.0
 10
95.641106
 20
37.780699
 30
0.0
 10
94.668023
 20
37.780699
 30
0.0
 10
93.878215
 20
38.236695
 30
0.0
  0
SPLINE
  5
1e5
100
AcDbEntity
  8
0
 62
7
100
AcDbSpline
 70
8
 71
3
 72
8
 73
4
 74
0
 40
0
 40
0
 40
0
 40
0
 40
1
 40
1
 40
1
 40
1
 10
93.878215
 20
38.236695
 30
0.0
 10
93.088407
 20
38.692691
 30
0.0
 10
92.601865
 20
39.535406
 30
0.0
 10
92.601865
 20
40.447397
 30
0.0
  0
LWPOLYLINE
  5
1e6
100
AcDbEntity
  8
0
 62
7
100
AcDbPolyline
 90
1
 70
1
 10
117.771216
 20
41.606232
 30
0.0
  0
SPLINE
  5
1e7
100
AcDbEntity
  8
0
 62
7
100
AcDbSpline
 70
8
 71
3
 72
8
 73
4
 74
0
 40
0
 40
0
 40
0
 40
0
 40
1
 40
1
 40
1
 40
1
 10
77.601870
 20
25.447402
 30
0.0
 10
77.601283
 20
26.359785
 30
0.0
 10
78.087696
 20
27.203113
 30
0.0
 10
78.877745
 20
27.659475
 30
0.0
  0
SPLINE
  5
1e8
100
AcDbEntity
  8
0
 62
7
100
AcDbSpline
 70
8
 71
3
 72
8
 73
4
 74
0
 40
0
 40
0
 40
0
 40
0
 40
1
 40
1
 40
1
 40
1
 10
78.877745
 20
27.659475
 30
0.0
 10
79.667794
 20
28.115836
 30
0.0
 10
80.641345
 20
28.115836
 30
0.0
 10
81.431394
 20
27.659475
 30
0.0
  0
SPLINE
  5
1e9
100
AcDbEntity
  8
0
 62
7
100
AcDbSpline
 70
8
 71
3
 72
8
 73
4
 74
0
 40
0
 40
0
 40
0
 40
0
 40
1
 40
1
 40
1
 40
1
 10
81.431394
 20
27.659475
 30
0.0
 10
82.221443
 20
27.203113
 30
0.0
 10
82.707856
 20
26.359785
 30
0.0
 10
82.707269
 20
25.447402
 30
0.0
  0
SPLINE
  5
1ea
100
AcDbEntity
  8
0
 62
7
100
AcDbSpline
 70
8
 71
3
 72
8
 73
4
 74
0
 40
0
 40
0
 40
0
 40
0
 40
1
 40
1
 40
1
 40
1
 10
82.707269
 20
25.447402
 30
0.0
 10
82.707856
 20
24.535019
 30
0.0
 10
82.221443
 20
23.691691
 30
0.0
 10
81.431394
 20
23.235330
 30
0.0
  0
SPLINE
  5
1eb
100
AcDbEntity
  8
0
 62
7
100
AcDbSpline
 70
8
 71
3
 72
8
 73
4
 74
0
 40
0
 40
0
 40
0
 40
0
 40
1
 40
1
 40
1
 40
1
 10
81.431394
 20
23.235330
 30
0.0
 10
80.641345
 20
22.778969
 30
0.0
 10
79.667794
 20
22.778969
 30
0.0
 10
78.877745
 20
23.235330
 30
0.0
  0
SPLINE
  5
1ec
100
AcDbEntity
  8
0
 62
7
100
AcDbSpline
 70
8
 71
3
 72
8
 73
4
 74
0
 40
0
 40
0
 40
0
 40
0
 40
1
 40
1
 40
1
 40
1
 10
78.877745
 20
23.235330
 30
0.0
 10
78.087696
 20
23.691691
 30
0.0
 10
77.601283
 20
24.535019
 30
0.0
 10
77.601870
 20
25.447402
 30
0.0
  0
LWPOLYLINE
  5
1ed
100
AcDbEntity
  8
0
 62
7
100
AcDbPolyline
 90
1
 70
1
 10
92.601865
 20
40.447397
 30
0.0
  0
SPLINE
  5
1ee
100
AcDbEntity
  8
0
 62
7
100
AcDbSpline
 70
8
 71
3
 72
8
 73
4
 74
0
 40
0
 40
0
 40
0
 40
0
 40
1
 40
1
 40
1
 40
1
 10
74.670928
 20
0.250107
 30
0.0
 10
74.670928
 20
0.678825
 30
0.0
 10
74.899647
 20
1.074978
 30
0.0
 10
75.270928
 20
1.289337
 30
0.0
  0
SPLINE
  5
1ef
100
AcDbEntity
  8
0
 62
7
100
AcDbSpline
 70
8
 71
3
 72
8
 73
4
 74
0
 40
0
 40
0
 40
0
 40
0
 40
1
 40
1
 40
1
 40
1
 10
75.270928
 20
1.289337
 30
0.0
 10
75.642210
 20
1.503697
 30
0.0
 10
76.099647
 20
1.503697
 30
0.0
 10
76.470928
 20
1.289337
 30
0.0
  0
SPLINE
  5
1f0
100
AcDbEntity
  8
0
 62
7
100
AcDbSpline
 70
8
 71
3
 72
8
 73
4
 74
0
 40
0
 40
0
 40
0
 40
0
 40
1
 40
1
 40
1
 40
1
 10
76.470928
 20
1.289337
 30
0.0
 10
76.842210
 20
1.074978
 30
0.0
 10
77.070929
 20
0.678825
 30
0.0
 10
77.070929
 20
0.250107
 30
0.0
  0
SPLINE
  5
1f1
100
AcDbEntity
  8
0
 62
7
100
AcDbSpline
 70
8
 71
3
 72
8
 73
4
 74
0
 40
0
 40
0
 40
0
 40
0
 40
1
 40
1
 40
1
 40
1
 10
77.070929
 20
0.250107
 30
0.0
 10
77.070929
 20
-0.178612
 30
0.0
 10
76.842210
 20
-0.574765
 30
0.0
 10
76.470928
 20
-0.789124
 30
0.0
  0
SPLINE
  5
1f2
100
AcDbEntity
  8
0
 62
7
100
AcDbSpline
 70
8
 71
3
 72
8
 73
4
 74
0
 40
0
 40
0
 40
0
 40
0
 40
1
 40
1
 40
1
 40
1
 10
76.470928
 20
-0.789124
 30
0.0
 10
76.099647
 20
-1.003483
 30
0.0
 10
75.642210
 20
-1.003483
 30
0.0
 10
75.270928
 20
-0.789124
 30
0.0
  0
SPLINE
  5
1f3
100
AcDbEntity
  8
0
 62
7
100
AcDbSpline
 70
8
 71
3
 72
8
 73
4
 74
0
 40
0
 40
0
 40
0
 40
0
 40
1
 40
1
 40
1
 40
1
 10
75.270928
 20
-0.789124
 30
0.0
 10
74.899647
 20
-0.574765
 30
0.0
 10
74.670928
 20
-0.178612
 30
0.0
 10
74.670928
 20
0.250107
 30
0.0
  0
LWPOLYLINE
  5
1f4
100
AcDbEntity
  8
0
 62
7
100
AcDbPolyline
 90
1
 70
1
 10
77.601870
 20
25.447402
 30
0.0
  0
SPLINE
  5
1f5
100
AcDbEntity
  8
0
 62
7
100
AcDbSpline
 70
8
 71
3
 72
8
 73
4
 74
0
 40
0
 40
0
 40
0
 40
0
 40
1
 40
1
 40
1
 40
1
 10
51.982279
 20
47.625086
 30
0.0
 10
51.981785
 20
48.054133
 30
0.0
 10
52.210396
 20
48.450800
 30
0.0
 10
52.581879
 20
48.665466
 30
0.0
  0
SPLINE
  5
1f6
100
AcDbEntity
  8
0
 62
7
100
AcDbSpline
 70
8
 71
3
 72
8
 73
4
 74
0
 40
0
 40
0
 40
0
 40
0
 40
1
 40
1
 40
1
 40
1
 10
52.581879
 20
48.665466
 30
0.0
 10
52.953363
 20
48.880132
 30
0.0
 10
53.411192
 20
48.880132
 30
0.0
 10
53.782676
 20
48.665466
 30
0.0
  0
SPLINE
  5
1f7
100
AcDbEntity
  8
0
 62
7
100
AcDbSpline
 70
8
 71
3
 72
8
 73
4
 74
0
 40
0
 40
0
 40
0
 40
0
 40
1
 40
1
 40
1
 40
1
 10
53.782676
 20
48.665466
 30
0.0
 10
54.154159
 20
48.450800
 30
0.0
 10
54.382770
 20
48.054133
 30
0.0
 10
54.382276
 20
47.625086
 30
0.0
  0
SPLINE
  5
1f8
100
AcDbEntity
  8
0
 62
7
100
AcDbSpline
 70
8
 71
3
 72
8
 73
4
 74
0
 40
0
 40
0
 40
0
 40
0
 40
1
 40
1
 40
1
 40
1
 10
54.382276
 20
47.625086
 30
0.0
 10
54.382770
 20
47.196039
 30
0.0
 10
54.154159
 20
46.799372
 30
0.0
 10
53.782676
 20
46.584706
 30
0.0
  0
SPLINE
  5
1f9
100
AcDbEntity
  8
0
 62
7
100
AcDbSpline
 70
8
 71
3
 72
8
 73
4
 74
0
 40
0
 40
0
 40
0
 40
0
 40
1
 40
1
 40
1
 40
1
 10
53.782676
 20
46.584706
 30
0.0
 10
53.411192
 20
46.370039
 30
0.0
 10
52.953363
 20
46.370039
 30
0.0
 10
52.581879
 20
46.584706
 30
0.0
  0
SPLINE
  5
1fa
100
AcDbEntity
  8
0
 62
7
100
AcDbSpline
 70
8
 71
3
 72
8
 73
4
 74
0
 40
0
 40
0
 40
0
 40
0
 40
1
 40
1
 40
1
 40
1
 10
52.581879
 20
46.584706
 30
0.0
 10
52.210396
 20
46.799372
 30
0.0
 10
51.981785
 20
47.196039
 30
0.0
 10
51.982279
 20
47.625086
 30
0.0
  0
LWPOLYLINE
  5
1fb
100
AcDbEntity
  8
0
 62
7
100
AcDbPolyline
 90
1
 70
1
 10
74.670928
 20
0.250107
 30
0.0
  0
SPLINE
  5
1fc
100
AcDbEntity
  8
0
 62
7
100
AcDbSpline
 70
8
 71
3
 72
8
 73
4
 74
0
 40
0
 40
0
 40
0
 40
0
 40
1
 40
1
 40
1
 40
1
 10
172.127142
 20
54.019756
 30
0.0
 10
171.998886
 20
54.077003
 30
0.0
 10
171.860009
 20
54.106590
 30
0.0
 10
171.719557
 20
54.106590
 30
0.0
  0
LWPOLYLINE
  5
1fd
100
AcDbEntity
  8
0
 62
7
100
AcDbPolyline
 90
1
 70
1
 10
51.982279
 20
47.625086
 30
0.0
  0
SPLINE
  5
1fe
100
AcDbEntity
  8
0
 62
7
100
AcDbSpline
 70
8
 71
3
 72
8
 73
4
 74
0
 40
0
 40
0
 40
0
 40
0
 40
1
 40
1
 40
1
 40
1
 10
150.182249
 20
54.106590
 30
0.0
 10
149.629965
 20
54.106591
 30
0.0
 10
149.182251
 20
54.554306
 30
0.0
 10
149.182252
 20
55.106590
 30
0.0
  0
LWPOLYLINE
  5
1ff
100
AcDbEntity
  8
0
 62
7
100
AcDbPolyline
 90
2
 70
0
 10
171.719557
 20
54.106590
 30
0.0
 10
150.182249
 20
54.106590
 30
0.0
  0
SPLINE
  5
200
100
AcDbEntity
  8
0
 62
7
100
AcDbSpline
 70
8
 71
3
 72
8
 73
4
 74
0
 40
0
 40
0
 40
0
 40
0
 40
1
 40
1
 40
1
 40
1
 10
149.182252
 20
61.426310
 30
0.0
 10
149.182251
 20
61.879689
 30
0.0
 10
148.877233
 20
62.276340
 30
0.0
 10
148.439059
 20
62.392771
 30
0.0
  0
SPLINE
  5
201
100
AcDbEntity
  8
0
 62
7
100
AcDbSpline
 70
8
 71
3
 72
8
 73
4
 74
0
 40
0
 40
0
 40
0
 40
0
 40
1
 40
1
 40
1
 40
1
 10
148.439059
 20
62.392771
 30
0.0
 10
117.483385
 20
70.618266
 30
0.0
 10
84.753102
 20
69.185594
 30
0.0
 10
54.634541
 20
58.286754
 30
0.0
  0
SPLINE
  5
202
100
AcDbEntity
  8
0
 62
7
100
AcDbSpline
 70
8
 71
3
 72
8
 73
4
 74
0
 40
0
 40
0
 40
0
 40
0
 40
1
 40
1
 40
1
 40
1
 10
54.634541
 20
58.286754
 30
0.0
 10
53.456111
 20
57.860323
 30
0.0
 10
52.282826
 20
57.419807
 30
0.0
 10
51.114938
 20
56.965301
 30
0.0
  0
SPLINE
  5
203
100
AcDbEntity
  8
0
 62
7
100
AcDbSpline
 70
8
 71
3
 72
8
 73
4
 74
0
 40
0
 40
0
 40
0
 40
0
 40
1
 40
1
 40
1
 40
1
 10
51.114938
 20
56.965301
 30
0.0
 10
45.137123
 20
54.638914
 30
0.0
 10
39.307397
 20
51.948605
 30
0.0
 10
33.658496
 20
48.909481
 30
0.0
  0
SPLINE
  5
204
100
AcDbEntity
  8
0
 62
7
100
AcDbSpline
 70
8
 71
3
 72
8
 73
4
 74
0
 40
0
 40
0
 40
0
 40
0
 40
1
 40
1
 40
1
 40
1
 10
33.658496
 20
48.909481
 30
0.0
 10
33.334412
 20
48.735124
 30
0.0
 10
33.132283
 20
48.396852
 30
0.0
 10
33.132283
 20
48.028843
 30
0.0
  0
LWPOLYLINE
  5
205
100
AcDbEntity
  8
0
 62
7
100
AcDbPolyline
 90
2
 70
0
 10
149.182252
 20
55.106590
 30
0.0
 10
149.182252
 20
61.426310
 30
0.0
  0
SPLINE
  5
206
100
AcDbEntity
  8
0
 62
7
100
AcDbSpline
 70
8
 71
3
 72
8
 73
4
 74
0
 40
0
 40
0
 40
0
 40
0
 40
1
 40
1
 40
1
 40
1
 10
33.132283
 20
-9.524895
 30
0.0
 10
33.132287
 20
-10.077177
 30
0.0
 10
33.580001
 20
-10.524888
 30
0.0
 10
34.132283
 20
-10.524888
 30
0.0
  0
LWPOLYLINE
  5
207
100
AcDbEntity
  8
0
 62
7
100
AcDbPolyline
 90
2
 70
0
 10
33.132283
 20
48.028843
 30
0.0
 10
33.132283
 20
-9.524895
 30
0.0
  0
SPLINE
  5
208
100
AcDbEntity
  8
0
 62
7
100
AcDbSpline
 70
8
 71
3
 72
8
 73
4
 74
0
 40
0
 40
0
 40
0
 40
0
 40
1
 40
1
 40
1
 40
1
 10
77.518162
 20
-10.524888
 30
0.0
 10
78.070443
 20
-10.524888
 30
0.0
 10
78.518158
 20
-10.972598
 30
0.0
 10
78.518162
 20
-11.524880
 30
0.0
  0
LWPOLYLINE
  5
209
100
AcDbEntity
  8
0
 62
7
100
AcDbPolyline
 90
2
 70
0
 10
34.132283
 20
-10.524888
 30
0.0
 10
77.518162
 20
-10.524888
 30
0.0
  0
SPLINE
  5
20a
100
AcDbEntity
  8
0
 62
7
100
AcDbSpline
 70
8
 71
3
 72
8
 73
4
 74
0
 40
0
 40
0
 40
0
 40
0
 40
1
 40
1
 40
1
 40
1
 10
78.518162
 20
-17.094728
 30
0.0
 10
78.518166
 20
-17.647010
 30
0.0
 10
78.965880
 20
-18.094721
 30
0.0
 10
79.518162
 20
-18.094721
 30
0.0
  0
LWPOLYLINE
  5
20b
100
AcDbEntity
  8
0
 62
7
100
AcDbPolyline
 90
2
 70
0
 10
78.518162
 20
-11.524880
 30
0.0
 10
78.518162
 20
-17.094728
 30
0.0
  0
SPLINE
  5
20c
100
AcDbEntity
  8
0
 62
7
100
AcDbSpline
 70
8
 71
3
 72
8
 73
4
 74
0
 40
0
 40
0
 40
0
 40
0
 40
1
 40
1
 40
1
 40
1
 10
108.093154
 20
-18.094721
 30
0.0
 10
127.016227
 20
-18.094720
 30
0.0
 10
145.164261
 20
-25.611880
 30
0.0
 10
158.544895
 20
-38.992512
 30
0.0
  0
LWPOLYLINE
  5
20d
100
AcDbEntity
  8
0
 62
7
100
AcDbPolyline
 90
2
 70
0
 10
79.518162
 20
-18.094721
 30
0.0
 10
108.093154
 20
-18.094721
 30
0.0
  0
SPLINE
  5
20e
100
AcDbEntity
  8
0
 62
7
100
AcDbSpline
 70
8
 71
3
 72
8
 73
4
 74
0
 40
0
 40
0
 40
0
 40
0
 40
1
 40
1
 40
1
 40
1
 10
165.280085
 20
-45.727691
 30
0.0
 10
165.467621
 20
-45.915227
 30
0.0
 10
165.721975
 20
-46.020584
 30
0.0
 10
165.987191
 20
-46.020584
 30
0.0
  0
SPLINE
  5
20f
100
AcDbEntity
  8
0
 62
7
100
AcDbSpline
 70
8
 71
3
 72
8
 73
4
 74
0
 40
0
 40
0
 40
0
 40
0
 40
1
 40
1
 40
1
 40
1
 10
165.987191
 20
-46.020584
 30
0.0
 10
166.252408
 20
-46.020584
 30
0.0
 10
166.506762
 20
-45.915227
 30
0.0
 10
166.694298
 20
-45.727691
 30
0.0
  0
LWPOLYLINE
  5
210
100
AcDbEntity
  8
0
 62
7
100
AcDbPolyline
 90
2
 70
0
 10
158.544895
 20
-38.992512
 30
0.0
 10
165.280085
 20
-45.727691
 30
0.0
  0
SPLINE
  5
211
100
AcDbEntity
  8
0
 62
7
100
AcDbSpline
 70
8
 71
3
 72
8
 73
4
 74
0
 40
0
 40
0
 40
0
 40
0
 40
1
 40
1
 40
1
 40
1
 10
193.635060
 20
-18.786950
 30
0.0
 10
193.822599
 20
-18.599413
 30
0.0
 10
193.927958
 20
-18.345057
 30
0.0
 10
193.927958
 20
-18.079838
 30
0.0
  0
SPLINE
  5
212
100
AcDbEntity
  8
0
 62
7
100
AcDbSpline
 70
8
 71
3
 72
8
 73
4
 74
0
 40
0
 40
0
 40
0
 40
0
 40
1
 40
1
 40
1
 40
1
 10
193.927958
 20
-18.079838
 30
0.0
 10
193.927958
 20
-17.814619
 30
0.0
 10
193.822599
 20
-17.560263
 30
0.0
 10
193.635060
 20
-17.372726
 30
0.0
  0
LWPOLYLINE
  5
213
100
AcDbEntity
  8
0
 62
7
100
AcDbPolyline
 90
2
 70
0
 10
166.694298
 20
-45.727691
 30
0.0
 10
193.635060
 20
-18.786950
 30
0.0
  0
SPLINE
  5
214
100
AcDbEntity
  8
0
 62
7
100
AcDbSpline
 70
8
 71
3
 72
8
 73
4
 74
0
 40
0
 40
0
 40
0
 40
0
 40
1
 40
1
 40
1
 40
1
 10
186.899871
 20
-10.637547
 30
0.0
 10
185.397505
 20
-9.135176
 30
0.0
 10
183.852486
 20
-7.676073
 30
0.0
 10
182.266706
 20
-6.262028
 30
0.0
  0
SPLINE
  5
215
100
AcDbEntity
  8
0
 62
7
100
AcDbSpline
 70
8
 71
3
 72
8
 73
4
 74
0
 40
0
 40
0
 40
0
 40
0
 40
1
 40
1
 40
1
 40
1
 10
182.266706
 20
-6.262028
 30
0.0
 10
182.053924
 20
-6.072291
 30
0.0
 10
181.932242
 20
-5.800755
 30
0.0
 10
181.932241
 20
-5.515665
 30
0.0
  0
LWPOLYLINE
  5
216
100
AcDbEntity
  8
0
 62
7
100
AcDbPolyline
 90
2
 70
0
 10
193.635060
 20
-17.372726
 30
0.0
 10
186.899871
 20
-10.637547
 30
0.0
  0
SPLINE
  5
217
100
AcDbEntity
  8
0
 62
7
100
AcDbSpline
 70
8
 71
3
 72
8
 73
4
 74
0
 40
0
 40
0
 40
0
 40
0
 40
1
 40
1
 40
1
 40
1
 10
181.932241
 20
48.626489
 30
0.0
 10
181.932241
 20
48.997420
 30
0.0
 10
181.726920
 20
49.337878
 30
0.0
 10
181.398843
 20
49.510956
 30
0.0
  0
SPLINE
  5
218
100
AcDbEntity
  8
0
 62
7
100
AcDbSpline
 70
8
 71
3
 72
8
 73
4
 74
0
 40
0
 40
0
 40
0
 40
0
 40
1
 40
1
 40
1
 40
1
 10
181.398843
 20
49.510956
 30
0.0
 10
178.358436
 20
51.114919
 30
0.0
 10
175.266204
 20
52.618662
 30
0.0
 10
172.127142
 20
54.019756
 30
0.0
  0
LWPOLYLINE
  5
219
100
AcDbEntity
  8
0
 62
7
100
AcDbPolyline
 90
2
 70
0
 10
181.932241
 20
-5.515665
 30
0.0
 10
181.932241
 20
48.626489
 30
0.0
  0
LWPOLYLINE
  5
21a
100
AcDbEntity
  8
0
 62
7
100
AcDbPolyline
 90
1
 70
1
 10
172.127142
 20
54.019756
 30
0.0
  0
ENDSEC
  0
SECTION
  2
OBJECTS
  0
DICTIONARY
  5
C
330
0
100
AcDbDictionary
  3
ACAD_GROUP
350
D
  3
ACAD_MLINESTYLE
350
17
  0
DICTIONARY
  5
D
330
C
100
AcDbDictionary
  0
DICTIONARY
  5
1A
330
C
100
AcDbDictionary
  0
DICTIONARY
  5
17
330
C
100
AcDbDictionary
  3
STANDARD
350
18
  0
DICTIONARY
  5
19
330
C
100
AcDbDictionary
  0
ENDSEC
  0
EOF
